» » »

Car Tabs (ver.4)

Artists:  A B C D E F G H I J K L M N O P Q R S T U V W X Y Z # 

Car Tabs (ver.4)

Built To Spill
Rating:
0/5 (0 votes)

Tabs too difficult? Try these video lessons and learn fast.
                			     Car (solo) - Built To Spill


Tuning: Standard


e|---------------------------------------------------------------------------|
B|---------------------------------------------------------------------------|
G|---------------------------------------------------------------------------|
D|-------------3-------------------------------------------------------------|
A|-1-1--3h5p3------5--3--5--5/6666-5-6/8888-6-8/10-10-10-10-8----8/12-------|
E|---------------------------------------------------------------------------|

e|---------------------------------------------------------------------------|
B|---------------------------------------------------------------------------|
G|-----7-----7----7/8---8/10--10/12--10-----7h8p7\5/7---3h5/7---5p3~~~------|
D|--8-----7------------------------------------------------------------------|
A|---------------------------------------------------------------------------|
E|---------------------------------------------------------------------------|

e|---------------------------------------------------------------------------|
B|---------------------------------------------------------------------------|
G|--(p0h3~~~)----------------------------------------------------------------|
D|---------------------------------------------------------------------------|
A|---------------------------------------------------------------------------|
E|---------------------------------------------------------------------------|


| /  slide up
| \  slide down
| h  hammer-on
| p  pull-off
| ~  vibrato
| +  harmonic
| x  Mute note
            
Tabs too difficult? Try these video lessons and learn fast.




comments powered by Disqus
↑ Back to top | Tablatures and chords are parodies/interpretations of the original songs. You may use it for private study, scholarship, research or language learning purposes only