» » »

Built To Spill, Carry The Zero Tabs (ver.2)

Artists:  A B C D E F G H I J K L M N O P Q R S T U V W X Y Z # 

Carry The Zero Tabs (ver.2)

Built To Spill Tabs
 Rating:
4.6/5 (10 votes)
Carry The Zero lessons Tabs too difficult? Try these video lessons and learn fast
                
(Intro/Verse Chords)
e|-0-----0-----0-----2--|
B|-2-----0-----0-----2--|
G|-1-----1-----2-----2--|
D|-2-----2-----1-----4--|
A|-0-----2-----2-----4--|
E|-------0-----x-----2--|

(Intro Guitar One pt.2)
e|---9-----9---------------------------------------------------------------|
B|-----9-----9---9-----9-----10p9-----9----10-----10-9-----------9-x-/14---|
G|-9-----9-----9---------9--------9-----------8--------9-8---8h9-----------|
D|-------------------9-----9--------9----9------9--------------------------|
A|-------------------------------------------------------------------------|
E|-------------------------------------------------------------------------|

(Intro Guitar Two pt.2/reocurring riff One)
e|------16\14-14-12~-14p12----12-14-11-------------11-12-14----------------|
B|-------------------------14-------------------------------14~------------|
G|-------------------------------------------------------------------------|
D|-------------------------------------------------------------------------|
A|-------------------------------------------------------------------------|
E|-------------------------------------------------------------------------|

(Intro Guitar Two pt.2/reocurring riff Two)
e|------16\14-14-12~-14p12----12-14-11-------------11-11-12----------------|
B|-------------------------14-------------------------------14~------------|
G|-------------------------------------------------------------------------|
D|-------------------------------------------------------------------------|
A|-------------------------------------------------------------------------|
E|-------------------------------------------------------------------------|


(Solo)
e|----------------------------------------------|
B|-2\9~-------------9--7----7h9--5--7p5h7--\2---|
G|----------------------------------------------|
D|----------------------------------------------|
A|----------------------------------------------|
E|----------------------------------------------|

e|----------------------------------------------------|
B|-2\9~-------------10b12-----------9-10-9--7-9b10r9--|
G|----------------------------------------------------|
D|----------------------------------------------------|
A|----------------------------------------------------|
E|----------------------------------------------------|

e|----------------------------------------------------|
B|-7~----------5~----------(5-7)--4b5-------\2~-------|
G|----------------------------------------------------|
D|----------------------------------------------------|
A|----------------------------------------------------|
E|----------------------------------------------------|

e|-------------------------------------------------------------------------|
B|---5-----5-7---9h10p9--9~---5-7---9h10p9--/12~---12-12-12\10--9h10p9--9\-|
G|-4-----------------------------------------------------------------------|
D|-------------------------------------------------------------------------|
A|-------------------------------------------------------------------------|
E|-------------------------------------------------------------------------|

e|--------------------------------------------------------------------|
B|-------9b10r9--7-5~--------5h7p5--4~-------5p4h5--7~--9~-----9b10r9-|
G|--------------------------------------------------------------------|
D|--------------------------------------------------------------------|
A|--------------------------------------------------------------------|
E|--------------------------------------------------------------------|

e|--------------------------------------------------------------------|
B|-9~---------5~--------7b9r7--4~--------5p4h5----7~--9~-----9b10-----|
G|--------------------------------------------------------------------|
D|--------------------------------------------------------------------|
A|--------------------------------------------------------------------|
E|--------------------------------------------------------------------|

NOTE: Some of the Bends on this solo are really slow. Know the song to know which ones.

(Outro Pt. One)
e|-------------------------------------------------------------------------|
B|-------------------------------------------------------------------------|
G|--9--11---13---9--11---13---9/11---13----9--11---13---9--11---13---9/11--|
D|--x---x----x---x---x----x---x--x----x----x---x----x---x---x----x---x--x--|
A|--7---9---11---7---9---11---7/-9---11----7---9---11---7---9---11---7/-9--|
E|-------------------------------------------------------------------------|

e|----------|
B|----------|
G|-13---9---|
D|--x---x---|
A|-11---7---|
E|----------|

(Outro transition)
e|--------------------------|
B|--------------------------|
G|-14--14--14--16--16--16---|
D|--x---x---x---x---x---x---|
A|-12--12--12--14--14--14---|
E|--------------------------|

(Outro pt. Two)
e|-----------------------------------------------------|
B|-----------------------------------------------------|
G|-------13-----------13-----------13-----------13-----|
D|-9--9---x--x--9--9---x--x--9--9---x--x--9--9---x--x--|
A|-x--x--11--x--x--x--11--x--x--x--11--x--x--x--11--x--|
E|-7--7------x--7--7------x--7--7------x--7--7------x--|

e|----------------------------------------------------------------|
B|----------------------------------------------------------------|
G|----------18---------18--18-------------18---------18------18---|
D|--14--14---x--x--14---x---x--x--14--14---x--x--14---x--14---x---|
A|---x---x--16--x---x--16--16--x---x---x--16--x---x--16---x--16---|
E|--12--12------x--12----------x--12--12------x--12------12-------|
            
Submit corrections

comments powered by Disqus
↑ Back to top | Built To Spill Tabs for Carry The Zero. Lyrics for acoustic guitar and electric guitar. Tablatures and chords are parodies/interpretations of the original songs. You may use it for private study, scholarship, research or language learning purposes only