» » »

Carry The Zero Bass tabs (ver.1)

Artists:  A B C D E F G H I J K L M N O P Q R S T U V W X Y Z # 

Carry The Zero Bass tabs (ver.1)

Built To Spill
Rating:
0/5 (0 votes)

Hard to play? Try these video lessons and learn fast.
                BASSLINE FOR CARRY THE ZERO
                          As recorded by Built To Spill
               (From the 1997 LP recording KEEP IT LIKE A SECRET)



Main Bass Line
|------------------------------------------------------|
|---------------------6---6-4---------4-6-4-4-4-2---2--|
|-0-0-0-0-2h4-2h4-------------2-2-2-2-------------4----|
|-----------------0-0---0------------------------------|

Bridge- This repeats, you can figure out the order, but its only these 2 notes
|------------------------------------------------------------------|
|------------------------------------------------------------------|
|-0-0-0-0-0-0-0-0-0-0-0-0-0-0-0-0----------------------------------|
|---------------------------------0-0-0-0-0-0-0-0-0-0-0-0-0-0-0-0--|

Ending- repeat until song fades out
|--------------------------------------------------|
|--------------------------------------------------|
|---------------------/11-------------/11---9---9--|
|-0-0-0-0-0-0-0-0-0-0-----0-0-0-7-0-0-----0---0----|
            
Hard to play? Try these video lessons and learn fast. | Correct




comments powered by Disqus
↑ Back to top | Tablatures and chords are parodies/interpretations of the original songs. You may use it for private study, scholarship, research or language learning purposes only