>
 >
Stop, Hey What's That Sound

Stop, Hey What's That Sound Guitar Tabs

Buffalo Springfield - Stop, Hey What's That Sound chords, tabs, tablatures, lyrics

Guitar lessons | Add/correct | Request | Top 50 tabs Artists:  A B C D E F G H I J K L M N O P Q R S T U V W X Y Z 0-9

Stop, Hey What's That Sound Guitar Tabs – Buffalo Springfield

CD, Sheet music, Poster

Do you like Stop, Hey What's That Sound? Share with your friends now
Tabs
            Stop, hey whats that sound - Buffalo Springfield

                                    OR

                   For what its worth - Buffalo Springfield


Tuning:standard normal EADGBe tuning



~guitar 1
    W     W     W     W
e|--12----17----12----17---------|
B|-------------------------------|
G|o-----------------------------o|
D|o-----------------------------o|---
A|-------------------------------|   ----
E|-------------------------------|       ----
                                             ----
~guitar 2                                        ---- repeat both parts
0:05
   Q    E Q   E Q    E Q   E Q                ----    throughout song
e|---||----------------------------||   ------
B|---||----------------------------||---
G|---||o--------------------------o||
D|---||o--2-------------2---------o||
A|---||-4-----4-0-----4-----4------||
E|-0-||-----------------------0----||


riff 1: played with chorus second time:
     i don't know what he plays at the end there, i just guessed up some part. can't 
tell on the recording. just play what feels right.

~guitar 1
1:03
   S  Q  E E E E  S S S S Q  E E E     Q  S  Q S  Q H S  Q H
e|----4--2-0---------------------------------4----4-0----3-5b7--|
B|-0h2-------2-0--------------------------0h2--0h2----0h2-------|
G|----------------2-2-2-2\1-/2-1-1b2r1--------------------------|
D|-------------------------------------2------------------------|
A|--------------------------------------------------------------|
E|--------------------------------------------------------------|
   S  Q S  Q  Q  E E   E   H
e|----4----4--0--2-2b3-3r2-0-|
B|-0h2--0h2------------------|
G|---------------------------|
D|---------------------------|
A|---------------------------|
E|---------------------------|

brief solo:
1:42

   S  S H   H   E E E S     E   E    E E E E E H
e|----0-5b7-7r5-5-5-3-5p3p0-2b3-0------0----------|
B|-0h2-------------------------------3---3-1-0-0--|
G|------------------------------------------------|
D|------------------------------------------------|
A|------------------------------------------------|
E|------------------------------------------------|

fills:
1:54, 1:59, and 2:04
slow trill
1:54         1:59 S    S   S  S  S  2:04
e|-----------| e|-----------------| e|------3-5b7tr==-|   - natural harmonic
[n]  - artificial harmonic
n(n) - tapped harmonic
 ~   - vibrato
 tr  - trill
 T   - tap
 TP  - trem. picking
 PM  - palm muting
\n/  - tremolo bar dip; n = amount to dip
 \n  - tremolo bar down
 n/  - tremolo bar up
/n\  - tremolo bar inverted dip
 =   - hold bend; also acts as connecting device for hammers/pulls
 <>  - volume swell (louder/softer)
 x   - on rhythm slash represents muted slash
 o   - on rhythm slash represents single note slash

Misc Legend
-----------
 |  - bar
||  - double bar
||o - repeat start
o|| - repeat end
*|  - double bar (ending)





Comments


Popular Buffalo Springfield tabs & chords
Go And Say Goodbye Chords
I Am A Child Chords
Its So Hard To Wait Chords
Kind Woman 2 Chords
Mr. Soul Chords
Nowadays Clancy Cant Even Sing 1 Chords
Sit Down I Think I Love You Chords
Smile On Your Brother Chords
For What It's Worth 1 Tabs
Flying On The Ground Is Wrong Ukulele


Song lyrics



↑ Back to top | Tablatures and chords are parodies/interpretations of the original songs. You may use it for private study, scholarship, research or language learning purposes only
© 2014 AZChords.com Contact us | Privacy policy | DMCA | Add/correct tabs | Request tabs | Top 50 tabs