>
 >
Stone Crazy

Stone Crazy Guitar Tabs

Buddy Guy - Stone Crazy chords, tabs, tablatures, lyrics

Guitar lessons | Add/correct | Request | Top 50 tabs Artists:  A B C D E F G H I J K L M N O P Q R S T U V W X Y Z 0-9

Stone Crazy Guitar Tabs – Buddy Guy

CD, Sheet music, Poster

Do you like Stone Crazy? Share with your friends now
Tabs
#------------------------------------------------------------------------------##

                                   STONE CRAZY
                            As recorded by Buddy Guy


Gtr I (E A D G B E) - 'Gtr. 1'
Gtr II (E A D G B E) - 'Gtr. 2'

  Q=80
 9/8
  Gtr II
   W
|-------------------------------------------------------|
|-------------------------------------------------------|
|-------------------------------------------------------|
|-------------------------------------------------------|
|-------------------------------------------------------|
|-------------------------------------------------------|
|
| Gtr I
|  S  S  S  S  S  S  S  T  T  S  S  E  S  S  S  S  E
|----------10-------------------------------------------|
|-------10----13-10-13-10h13p10----10-13-10----10-------|
|-10-11-------------------------12----------12----10b11-|
|-------------------------------------------------------|
|-------------------------------------------------------|
|-------------------------------------------------------|


 12/8
   H.                        H.
|--------------------------------------------|
|--------------------------------------------|
|--------------------------------------------|
|--0-------------------------0---------------|
|--------------------------------------------|
|--------------------------------------------|
|
|             ~~~~~
|  S   S  Q   E.    S  S  S  S   S  Q   Q  E
|--------------------------------------------|
|------------13b15-10------------------------|
|---------------------12-10------------------|
|-12--10-12-----------------12--12-----------|
|----------------------------------12--10s=8-|
|--------------------------------------------|


    Q  E Q  E Q  E Q    E   Q  E Q  E Q  E Q  E
||------------------------|----------------------|
||o-----------------------|----------------------|
||------------------------|----------------------|
||--0--0-4--4-7--7-5----4-|----------------------|
||o-----------------------|------2--2-5--5-2--4--|
||------------------------|-3--3-----------------|
|
|   W            Q   E  E   W
||---------------------10-|----------------------|
||o--------------------10-|----------------------|
||------------------------|----------------------|
||------------------------|----------------------|
||o-----------------------|----------------------|
||------------------------|----------------------|


  Q  E Q  E Q  E Q           E
|---------------------------------|
|---------------------------------|
|---------------------------------|
|-0--0-4--4-7--7-5-----------4----|
|---------------------------------|
|---------------------------------|
|
| W            Q    S     S  S  S
|---------------------------------|
|------------------13b15-10----10-|
|---------------------------12----|
|---------------------------------|
|---------------------------------|
|---------------------------------|


   Q       E  Q               E     Q        E Q  E
|---------------------------------------------------|
|---------------------------------------------------|
|---------------------------------------------------|
|--0-------0--4---------------4-----7--------7-5--4-|
|---------------------------------------------------|
|---------------------------------------------------|
|
|  S  S  Q    X  T.  S  S  S  S  S  S  S  E  H
|----------------------10---------------------------|
|-------------------10----13-10-13-13p10------------|
|-11---------10h11-----------------------12-10------|
|----12-12------------------------------------------|
|---------------------------------------------------|
|---------------------------------------------------|


  Q  E Q  E Q  E Q    E   Q  E Q  E Q  E Q  E
|-----------------------|---------------------|
|-----------------------|---------------------|
|-----------------------|---------------------|
|-----------------------|---------------------|
|------2--2-5--5-4----2-|------2--2-5--5-4--2-|
|-3--3------------------|-3--3----------------|
|
| W            Q    E E   W
|------------------10---|---------------------|
|------------------10---|---------------------|
|-----------------------|---------------------|
|-----------------------|---------------------|
|-----------------------|---------------------|
|-----------------------|---------------------|


  Q  E Q          E   Q  E Q           E
|----------------------------------------------|
|----------------------------------------------|
|----------------------------------------------|
|-0--0-4----------4---7--7-5-----------4-------|
|----------------------------------------------|
|----------------------------------------------|
|
|         ~~~~~~~~~~~~
|                                      |--3--|
| H       E      +H        S  S  S  S  S  S  S
|-------------------------------10-------------|
|-------------------------------10-13p10----10-|
|--------12b14==(12)r-----------11-------12----|
|----------------------------12----------------|
|----------------------------------------------|
|----------------------------------------------|


   Q       E  Q               E     Q           E          Q  E
|--------------------------------------------------------------------|
|--------------------------------------------------------------------|
|--------------------------------------------------------------------|
|--0-------0--4---------------4-----7-----------7----------5--4------|
|--------------------------------------------------------------------|
|--------------------------------------------------------------------|
|
|        ~~
|  S  S  Q    X  T.  S  S  S  S  S  S  S  S  S  X  T.  +Q.       +S
|----------------------10--------------------------------------------|
|-------------------10----13-10-13-13p10----10-----------------------|
|-10-11------10h11-----------------------12----12p10--(10)------(10)-|
|-------12-----------------------------------------------------------|
|--------------------------------------------------------------------|
|--------------------------------------------------------------------|


  Q  E Q  E Q   E       Q                  E   Q  E Q  E Q  E Q  E
|--------------------------------------------|---------------------|
|--------------------------------------------|---------------------|
|--------------------------------------------|---------------------|
|--------------------------------------------|---------------------|
|------4--4-7---7-------5------------------4-|------2--2-5--5-4--2-|
|-5--5---------------------------------------|-3--3----------------|
|
|                       |---3---|  |--3--|
| W             E      +S    S  S  S  S  S E   W
|---------------------------10-13p10----10---|---------------------|
|--------------13b15==(13)r----------13------|---------------------|
|--------------------------------------------|---------------------|
|--------------------------------------------|---------------------|
|--------------------------------------------|---------------------|
|--------------------------------------------|---------------------|


  Q  E Q           E     Q           E     Q                 E
|-----------------------------------------------------------------|
|-----------------------------------------------------------------|
|-----------------------------------------------------------------|
|-0--0-4-----------4-----7-----------7-----5-----------------4----|
|-----------------------------------------------------------------|
|-----------------------------------------------------------------|
|
|                                          |--3--|  |--3--|
| Q  E S  S  S  S  S  S  S  S  S  S  S  S  S  S  S  S  S  S  E
|-----------------------------------------------------------------|
|--------------------------------------------------13----10-------|
|-----------10-11-12-11-12-11-12-11-12-11-12-11-12----12----10b11-|
|--------12-------------------------------------------------------|
|-----------------------------------------------------------------|
|-----------------------------------------------------------------|


   Q       E  Q                 E  Q   E  E Q       Q    E  Q      E Q  E Q  E
|-----------------------------------------------||-----------------------------|
|----------------------------------------------o||-----------------------------|
|-----------------------------------------------||-----------------------------|
|--0-------0--4-----------------4--7---5--6-7---||--0----0--4------4-7--7-5--4-|
|----------------------------------------------o||-----------------------------|
|-----------------------------------------------||-----------------------------|
|
|        ~~                        ~~~                 ~~
|                      |--3--|
|  S  S  Q    S     S  S  S  S  E  Q.     E Q       E  Q    E    W
|-----------------------------------------------||-----------------------------|
|----------------------------------------------o||-15-15---13b14---------------|
|------------12b13-12-10------------------------||-----------------------------|
|-12-12-12---------------12-10------------------||-----------------------------|
|------------------------------12-12-----10----o||-----------------------------|
|-----------------------------------------------||-----------------------------|


  Q       E     Q                    E        Q          E     Q        E
|-------------------------------------------------------------------------|
|-------------------------------------------------------------------------|
|-------------------------------------------------------------------------|
|-------------------------------------------------------------------------|
|---------------2--------------------2--------5----------5-----2--------4-|
|-3-------3---------------------------------------------------------------|
|
|               |---3----|  |--3--|  |--3--|
| E S  S  S  S  S     S  S  S  S  S  S  S  S  E     +E   E     S  E.    E
|--------13-15-15b17-15-14-15p14----13-14-15-15b17r(15)-15b17-13-15b17-13-|
|-----15-------------------------15---------------------------------------|
|-------------------------------------------------------------------------|
|-------------------------------------------------------------------------|
|-------------------------------------------------------------------------|
|-------------------------------------------------------------------------|


   Q       E Q  E Q  E Q  E
|----------------------------|
|----------------------------|
|----------------------------|
|--0-------0-4--4-7--7-5--4--|
|----------------------------|
|----------------------------|
|
|        ~~
|  S  S  Q   W            E
|-15-15-15-------------------|
|----------------------------|
|----------------------------|
|----------------------------|
|----------------------------|
|----------------------------|


  Q           E           Q           E     Q              E  Q               E
|-------------------------------------------------------------------------------|
|-------------------------------------------------------------------------------|
|-------------------------------------------------------------------------------|
|-0-----------0-----------4-----------4-----7--------------7--5---------------4-|
|-------------------------------------------------------------------------------|
|-------------------------------------------------------------------------------|
|
| S  S  S  S  S     S     E     E     E     E     S     E.    X  T.  S  Q
|------13-15-15b17-15b17-15b17-15b17-15b17-15b17-15b17-15--------------17b19====|
|---15--------------------------------------------------------------15----------|
|------------------------------------------------------------15s16--------------|
|-------------------------------------------------------------------------------|
|-------------------------------------------------------------------------------|
|-------------------------------------------------------------------------------|


    Q       E     Q                E Q  E Q   E
|------------------------------------------------|
|------------------------------------------------|
|------------------------------------------------|
|------------------------------------------------|
|-----------------2----------------2-5--5-4---2--|
|---3-------3------------------------------------|
|
|                               ~~~
|  +E.   S  S  S  S     +S   S  E.   H      Q
|-(17)r-17-15-17---------------------------------|
|----------------17b18r(17)----15----------------|
|---------------------------16-------------------|
|------------------------------------------------|
|------------------------------------------------|
|------------------------------------------------|


  Q            E        Q                   E     Q                E Q              E
|----------------------------------------------------------------------------------------|
|----------------------------------------------------------------------------------------|
|----------------------------------------------------------------------------------------|
|----------------------------------------------------------------------------------------|
|-----------------------2-------------------2-----5----------------5-4--------------2----|
|-3------------3-------------------------------------------------------------------------|
|
|                                                 |---3----|
| E  X  T.  S  S     S  S  S  T     +T   S  S  S  S     S  S  E    E T  S.  +S   S  S  S
|-------------17b19-17-15-17---------------------------17-19---------9s10--(10)----------|
|----------15----------------17b18r(17)-15h17p15-17b19-------17b19--------------10----10-|
|---15s16--------------------------------------------------------------------------12----|
|----------------------------------------------------------------------------------------|
|----------------------------------------------------------------------------------------|
|----------------------------------------------------------------------------------------|


   Q     E Q  E Q  E     Q           E   Q  E Q  E Q  E  Q            E
|--------------------------------------|-----------------------------------|
|--------------------------------------|-----------------------------------|
|--------------------------------------|-----------------------------------|
|--0-----0-4--4-7--7-----5-----------4-|-0--0-4--4-7--7--5------------4----|
|--------------------------------------|-----------------------------------|
|--------------------------------------|-----------------------------------|
|
|  S  E. H      Q  S  S  S  S  S  S  E   W            E  T  S.  S  S  E
|--------------------------------------|-----------------------10-12-12b14-|
|-----------------------------10-------|----------------11s12--------------|
|-10-11-----------------10-12----10-11-|-----------------------------------|
|--------------------12----------------|-----------------------------------|
|--------------------------------------|-----------------------------------|
|--------------------------------------|-----------------------------------|


   Q           E  Q          E  Q       E  Q      E
|---------------------------------------------------|
|---------------------------------------------------|
|---------------------------------------------------|
|---------------------------------------------------|
|-----------------4----------4--7-------7--5------4-|
|--5-----------5------------------------------------|
|
|              ~~~
|  S  S  S  S  E.    S  Q       S  S  Q    E.  S  E
|-10----10---------------------------------------10-|
|----10----10-------10------------------------10----|
|-------------12-------10b11------------------------|
|------------------------------12-10----------------|
|------------------------------------12---10--------|
|---------------------------------------------------|


   Q   E Q        E    Q        E      Q               E
|---------------------------------------------------------------|
|---------------------------------------------------------------|
|---------------------------------------------------------------|
|---------------------------------------------------------------|
|--------2--------2----5--------5------4---------------2--------|
|--3---3--------------------------------------------------------|
|
|  ~~~
|                                      |--3--|         |--3--|
|  Q.    E  E     Q       S  S  T  S.  S  S  S  T  S.  S  S  S
|----------15b17-15b17---13-15-13s14--15p14----13s14--15p14-----|
|-15----------------------------------------15--------------15--|
|---------------------------------------------------------------|
|---------------------------------------------------------------|
|---------------------------------------------------------------|
|---------------------------------------------------------------|


   Q          E Q          E     Q                 E     Q           E
|----------------------------------------------------------------------------|
|----------------------------------------------------------------------------|
|----------------------------------------------------------------------------|
|--0----------0-4----------4-----7-----------------7-----5-----------4-------|
|----------------------------------------------------------------------------|
|----------------------------------------------------------------------------|
|
|           ~~
|  |--3--|                                                           |--3--|
|  S  S  S  Q   S S  S  S  S  S  T  X  X  S  S  S  S  S  S  S  S  S  S  S  S
|-14-------------------10----------------------------------------------------|
|----15-15-15-------10----13-10-13p10h13p10----10-13-10----10----------------|
|-----------------x-------------------------12----------12----12-10----------|
|-------------------------------------------------------------------12-10-12-|
|----------------------------------------------------------------------------|
|----------------------------------------------------------------------------|


   Q   E Q               E     Q   E  E  Q     Q   E Q  E Q  E Q  E
|-------------------------------------------|-----------------------|
|-------------------------------------------|-----------------------|
|-------------------------------------------|-----------------------|
|--0---0-4---------------4-----7---5--6--7--|--0---0-4--4-7--7-5--4-|
|-------------------------------------------|-----------------------|
|-------------------------------------------|-----------------------|
|
|  ~~~                                         ~~~
|  Q.    X  T.  S  S  S  S  S  Q.     Q.       Q.    W            E
|-------------------------------------------|-----------------------|
|--------9s10-------------------------------|-15--------------------|
|--------------12-10------------------------|-----------------------|
|-12-----------------12-10------------------|-----------------------|
|--------------------------12-12-----10-----|-----------------------|
|-------------------------------------------|-----------------------|


  Q           E     Q           E     Q        E                Q               E
|---------------------------------------------------------------------------------|
|---------------------------------------------------------------------------------|
|---------------------------------------------------------------------------------|
|---------------------------------------------------------------------------------|
|-------------------2-----------2-----5--------5----------------2---------------4-|
|-3-----------3-------------------------------------------------------------------|
|
|                                                                               ~~~
|                                                                      |--3--|
| S  S  S  S  E     E     E     S  S  S  S  E  T     +T   T  T  T  S.  S  S  S  E
|------13-15-15b17-15b17-15b17-15-14-15-14-15-15b17r(15)-14----13s14--------------|
|---15------------------------------------------------------15--------15-15-15-15-|
|---------------------------------------------------------------------------------|
|---------------------------------------------------------------------------------|
|---------------------------------------------------------------------------------|
|---------------------------------------------------------------------------------|


    Q   E Q  E Q  E Q  E
|------------------------|
|------------------------|
|------------------------|
|---0---0-4--4-7--7-5--4-|
|------------------------|
|------------------------|
|
|~~~~~~
|  +Q.    W            E
|------------------------|
|-(15)-------------------|
|------------------------|
|------------------------|
|------------------------|
|------------------------|


  Q        E     Q         E     Q             E  Q         E
|-----------------------------------------------------------------|
|-----------------------------------------------------------------|
|-----------------------------------------------------------------|
|-0--------0-----4---------4-----7-------------7--5---------4-----|
|-----------------------------------------------------------------|
|-----------------------------------------------------------------|
|
| E  E     E     S     E.  S  S  E  S     +S   E  T  S.  E  E
|---15b17-15b17-15b17-15--13-15-13-15b17r(15)-13-----------17b20==|
|-------------------------------------------------------15--------|
|------------------------------------------------15s16------------|
|-----------------------------------------------------------------|
|-----------------------------------------------------------------|
|-----------------------------------------------------------------|


    Q       E     Q                   E Q  E Q  E
|-------------------------------------------------|
|-------------------------------------------------|
|-------------------------------------------------|
|-------------------------------------------------|
|-----------------2-------------------2-5--5-4--2-|
|---3-------3-------------------------------------|
|
|                                     ~~
|  +E.   S  S  S  T     +T   S  S  S  H      Q  E
|-(17)r-17-15-17----------------------------------|
|----------------17b18r(17)-15----15-15-----------|
|------------------------------16-----------------|
|-------------------------------------------------|
|-------------------------------------------------|
|-------------------------------------------------|


  Q   E    Q           E                Q           E  Q      E
|----------------------------------------------------------------|
|----------------------------------------------------------------|
|----------------------------------------------------------------|
|----------------------------------------------------------------|
|----------2-----------2----------------5-----------5--4------2--|
|-3---3----------------------------------------------------------|
|
| Q   E.      S  S  S  T     +T   T  T  S  S  S  S  E  Q      E
|----17b20---17-15-17------------------------17-19-17------------|
|---------------------17b18r(17)-15----15s19----------17b19--15\-|
|-----------------------------------16---------------------------|
|----------------------------------------------------------------|
|----------------------------------------------------------------|
|----------------------------------------------------------------|


  Q  E Q  E Q  E Q           E
|-------------------------------|
|-------------------------------|
|-------------------------------|
|-0--0-4--4-7--7-5-----------4--|
|-------------------------------|
|-------------------------------|
|
| W            Q    X  T.  S E
|------------------13s14--10----|
|-------------------------------|
|-------------------------------|
|-------------------------------|
|-------------------------------|
|-------------------------------|


  Q  E Q  E Q  E  Q           E
|----------------------------------|
|----------------------------------|
|----------------------------------|
|-0--0-4--4-7--7--5-----------4----|
|----------------------------------|
|----------------------------------|
|
| W            E  S  S  S  S  E
|----------------------10-12-12b14-|
|----------------10-12-------------|
|----------------------------------|
|----------------------------------|
|----------------------------------|
|----------------------------------|


   Q           E  Q        E     Q   E  Q    E
|-----------------------------------------------|
|-----------------------------------------------|
|-----------------------------------------------|
|-----------------------------------------------|
|-----------------4--------4-----7---7--5----4--|
|--5-----------5--------------------------------|
|
|              ~~~      ~~
|  S  S  S  S  E.    S  E  S  S  Q.     E E  E
|-10----10--------------------------------------|
|----10----10-------10----------------------10--|
|-------------12-------10-----------------------|
|-------------------------12-10-----------------|
|-------------------------------12-----10-------|
|-----------------------------------------------|


   Q    E  Q                   E     Q           E     Q            E
|---------------------------------------------------------------------------|
|---------------------------------------------------------------------------|
|---------------------------------------------------------------------------|
|---------------------------------------------------------------------------|
|----------2-------------------2-----5-----------5-----4------------2-------|
|--3----3-------------------------------------------------------------------|
|
|     ~~
|                |----3-----|                          |--3--|      |--3--|
|  E  Q    S  S  S     +S   S  S  S  S  S  E     S  S  S  S  S   E  S  S  S
|-10------13-15-15b17r(15)-13----13-14-15-15b17-15-13-15p13-----14----------|
|----15-----------------------15----------------------------15/----15-15-15-|
|---------------------------------------------------------------------------|
|---------------------------------------------------------------------------|
|---------------------------------------------------------------------------|
|---------------------------------------------------------------------------|


   Q   E  Q               E     Q                 E  Q              E
|------------------------------------------------------------------------|
|------------------------------------------------------------------------|
|------------------------------------------------------------------------|
|--0---0--4---------------4-----7-----------------7--5--------------4----|
|------------------------------------------------------------------------|
|------------------------------------------------------------------------|
|
|  ~~~
|  Q.     X  T.  S  S  S  S  S  X  X  T  S  S  S  E  S     S  E     S  S
|------------------10-------------------------------------10-------------|
|-15------------10----13-10-13-10h13p10----10----------------------------|
|--------10s11--------------------------12----12-10-12b14----12b14-12-10-|
|------------------------------------------------------------------------|
|------------------------------------------------------------------------|
|------------------------------------------------------------------------|


   Q       E  Q              E     Q   E  E Q
|-----------------------------------------------|
|-----------------------------------------------|
|-----------------------------------------------|
|--0-------0--4--------------4-----7---5--6-7---|
|-----------------------------------------------|
|-----------------------------------------------|
|
|        ~~
|  S  S  Q    S     S  S  S  S  S  Q.     Q   E
|-----------------------------------------------|
|------------------10---------------------------|
|-12-10------12b14----12-10---------------------|
|-------12------------------12-10---------------|
|---------------------------------12-----10-----|
|-----------------------------------------------|


   Q       E  Q           E  Q   E  E    Q
|-------------------------------------------------|
|-------------------------------------------------|
|-------------------------------------------------|
|--0-------0--4-----------4--7---5--6----7--------|
|-------------------------------------------------|
|-------------------------------------------------|
|
|        ~~               ~~~~~~
|                |--3--|
|  S  S  Q    E  S  S  S  E  Q.     S S  S S  S S
|----------------------------------10---13---15---|
|-------------------------------------------------|
|------------10-----------------------------------|
|-12-10-12------12-10-----------------------------|
|---------------------12-12-12--------------------|
|-------------------------------------------------|


   Q     E Q  E Q  E Q   E
|--------------------------|
|--------------------------|
|--------------------------|
|--0-----0-4--4-7--7-5---4-|
|--------------------------|
|--------------------------|
|
|  Q     W             Q
|-15b17--------------------|
|--------------------------|
|--------------------------|
|--------------------------|
|--------------------------|
|--------------------------|


   Q             E  Q        E         Q         E  Q              E
|----------------------------------------------------------------------|
|----------------------------------------------------------------------|
|----------------------------------------------------------------------|
|----------------------------------------------------------------------|
|-------------------2--------2---------5---------5--4--------------2---|
|--3-------------3-----------------------------------------------------|
|
|         ~~~~~~~
|                            |--3--|                |--3--|
|  X  T.  S  +Q     T  S. E  S  S  S  +E   S  S  E  S  S  S  S  S  E
|-15p13------------15p13----15p13h15-(15)-15p13----15p13----13---------|
|--------15-(15)--------------------------------15-------15----15-13\--|
|----------------------------------------------------------------------|
|----------------------------------------------------------------------|
|----------------------------------------------------------------------|
|----------------------------------------------------------------------|


  Q   E            Q              E Q  E Q   E
|----------------------------------------------|
|----------------------------------------------|
|----------------------------------------------|
|-0---0------------4--------------4-7--7-5---4-|
|----------------------------------------------|
|----------------------------------------------|
|
| Q   X  T.  T. X  X  T.  S  S  S E H      Q
|----------------------------------------------|
|----15s17--13\---15s17--12-12-13--------------|
|----------------------------------------------|
|----------------------------------------------|
|----------------------------------------------|
|----------------------------------------------|


  Q           E     Q              E   Q     E     Q   E
|--------------------------------------------------------*|
|--------------------------------------------------------*|
|--------------------------------------------------------*|
|-0-----------0-----4--------------4---7-----7-----5---4-*|
|--------------------------------------------------------*|
|--------------------------------------------------------*|
|
| S  S  S  S  S  S  S  S  S  E.       +Q     S  S  E Q
|------13-15-17-15-14-15-13-15b17====(15)r--15-13-15-----*|
|---15---------------------------------------------------*|
|--------------------------------------------------------*|
|--------------------------------------------------------*|
|--------------------------------------------------------*|
|--------------------------------------------------------*|


Duration Legend
---------------
W - whole; H - half; Q - quarter; E - 8th; S - 16th; T - 32nd; X - 64th; a - acciaccatura
+ - note tied to previous; . - note dotted; .. - note double dotted
Uncapitalized letters represent notes that are staccato (1/2 duration)
Irregular groupings are notated above the duration line
Duration letters will always appear directly above the note/fret number it represents the
duration for.  Duration letters with no fret number below them represent rests.  Multi-
bar rests are notated in the form Wxn, where n is the number of bars to rest for.  Low
melody durations appear below the staff

Tablature Legend
----------------
 h   - hammer-on
 p   - pull-off
 b   - bend
 pb  - pre-bend
 r   - bend release (if no number after the r, then release immediately)
 /\  - slide into or out of (from/to "nowhere")
 s   - legato slide
 S   - shift slide
  - natural harmonic
[n]  - artificial harmonic
n(n) - tapped harmonic
 ~   - vibrato
 tr  - trill
 T   - tap
 TP  - trem. picking
 PM  - palm muting
\n/  - tremolo bar dip; n = amount to dip
 \n  - tremolo bar down
 n/  - tremolo bar up
/n\  - tremolo bar inverted dip
 =   - hold bend; also acts as connecting device for hammers/pulls
 <>  - volume swell (louder/softer)
 x   - on rhythm slash represents muted slash
 o   - on rhythm slash represents single note slash

Misc Legend
-----------
 |  - bar
||  - double bar
||o - repeat start
o|| - repeat end
*|  - double bar (ending)
 :  - bar (freetime)
 $  - Segno
 &  - Coda
Tempo markers -  = BPM(8/16=s8/s16), where s8 = swing 8ths, s16 = swing 16ths


***************************************************************************************
***************************************************************************************





Comments


Popular Buddy Guy tabs & chords
Damn Right Ive Got The Blues Bass Tabs
Damn Right, I've Got The Blues Bass Tabs
Midnight Train Bass Tabs
Something On Your Mind Bass Tabs
Feels Like Rain Chords
Mustang Sally Chords
Skin Deep Chords
Skin Deep 1 Chords
Everyday (Solo) Tabs
Messin' With The Kid Tabs


Song lyrics



↑ Back to top | Tablatures and chords are parodies/interpretations of the original songs. You may use it for private study, scholarship, research or language learning purposes only
© 2014 AZChords.com Contact us | Privacy policy | DMCA | Add/correct tabs | Request tabs | Top 50 tabs