» » »

Sam's Place Tabs (ver.1)

Artists:  A B C D E F G H I J K L M N O P Q R S T U V W X Y Z # 

Sam's Place Tabs (ver.1)

Buck Owens
Rating:
0/5 (0 votes)

Hard to play? Try these video lessons and learn fast.
                Into:  A,D,A,E

|-----------------------------10----8-10----10-10----8-10----------------------------|
|--10---8-10---10-10---8-10------10------10-------10--------10---8-10---10-10---8-10-|
|-----9------9-------9-----------------------------------------9------9-------9------|
|------------------------------------------------------------------------------------|
|------------------------------------------------------------------------------------|
|------------------------------------------------------------------------------------|

|--------------|
|--------------|
|--------------|
|--7-5---------|
|------7-5-----|
|----------7-5-|


            A                           E
There's a place down the street we call Sam's Place.
                                                     A
It starts a-jumpin' every evening when the sun goes down.
                               E
You can always find me down at Sam's Place,
                                      A
For that's where the gang all hangs around.

|----------------|
|----------------|
|----------------|
|----------------|
|--5b6--0--------|
|---------7b8--5-|

CHORUS:
            E
There's ol' Shimmy Shakin' Tina
    A
She hails from Pasadena.
       E                         A
She always got a big smile on her face.
        E                            A                   A7
There's Hootch-y-kootchy Hattie, she comes from Cincinnati,
              D7        E             A
Yeah, there's always a party at Sam's Place.

|------------|
|------------|
|------------|
|------------|
|------------|
|----0-2-4-5-|

Intro Riff....

Well, they've got a swingin' band down at Sam's Place.
You can hear 'em pickin' twenty blocks away.
They're playin' country music down at Sam's Place,

CHORUS
D7                E              A7
And I'll meet you tonight at Sam's Place.

Outro:

|--8b9----------------------------------------------|
|-------10-10-8-------------------------------------|
|---------------7b8--5---7-5-7b8--5---7-5-----------|
|----------------------7------------7-----7-5-------|
|---------------------------------------------7-5-4-|
|---------------------------------------------------|
            
Hard to play? Try these video lessons and learn fast. | Correct




comments powered by Disqus
↑ Back to top | Tablatures and chords are parodies/interpretations of the original songs. You may use it for private study, scholarship, research or language learning purposes only