» » »

Buck Owens, Happy Go Lucky Tabs (ver.1)

Artists:  A B C D E F G H I J K L M N O P Q R S T U V W X Y Z # 

Happy Go Lucky Tabs (ver.1)

Buck Owens Tabs
 Rating:
4/5 (4 votes)
Happy Go Lucky lessons Tabs too difficult? Try these video lessons and learn fast
                (Guitar)
feat don rich

E------------------------------------------------------------|
B------------------------------------------------------------|
G-----------------------4------------------------------------|
D-----------2---4---4/6---4b6r4-2-------2---4-2--------------|
A---2---4-------------------------0-2h4---0-----4-2----0-1-2-|
E-0---0---0---0---0----------------------------------4-------|


E-------------------------------------2-------2---------------|
B---------------------------------------0-2b4---2b4r2-0-------|
G-----------------4-------------1-2-3-------------------------|
D-----2---4---4/6-----4b6r4-2-4-------------------------------|
A-4-------------------------------------------------------2-4-|
E---0---0---0-------0-----------------------------------0-----|

E------------------------------------------------------------|
B------------------------------------------------------------|
G-------------4-----------------------1----------------------|
D---2-4---4/6-----5-4-2-------2---2-4--------------2-5/6-5-6-|
A-----------------------0-2h4---4--------4-3-4-3-4-----------|
E-0-----0-------0--------------------------------------------|


E-------------------------------------------------------------|
B-----------------------------------------------------------2-|
G-----6-----------------------------2-------------------1-4---|
D-5-6---5\4-2---2-4-2-------------------5---4---2-2-4-2-------|
A-------------4-------------0-4-2-4---4---4---4---------------|
E---------------------0-2-4-----------------------------------|

E-----------------------------------------2-------2-----------|
B-3-----------------------------------------0-2b4---2b4r2-0---|
G-----------------2-----------------1-2-3---------------------|
D---------------------5---4---2-3-4---------------------------|
A---------0-4-2-4---4---4---4---------------------------------|
E---0-2-4---------------------------------------------------0-|


E-------------------------------------------------------------|
B-------------------------------------------------------------|
G-------------------4-----------------------1-----------------|
D---------2---4-4/6---4b6-4-2-------2---2-4-------------2-6-5-|
A-2---4-----------------------0-2h4---4-------4-3-4-3-4-------|
E---0---0---0-------------------------------------------------|

E-------------------------|
B-------------------------|
G-------6-----------------|
D-6-5-6-----5\4-2---2-4-2-|
A---------4-------4-------|
E-------------------------|

Slide Solo (Standard Tuning)

E-----------------------7-0---------6\5-3/4-----------------|
B---------------5-7-7/9-----8\7-5-0---------5-------5-0-2-0-|
G-1-2-3-4---6---------------------------------7-6-4---------|
D---------6---6---------------------------------------------|
A-----------------------------------------------------------|
E-----------------------------------------------------------|


E---------------------------7-0-------------------14-------|
B---------------5---7-5-7/9-----8\7-0----------------15-12-|
G-1-2-3-4---6-------------------------11-13-14-15----------|
D---------6---6---6----------------------------------------|
A----------------------------------------------------------|
E----------------------------------------------------------|


E----------------12\10-------------------------------------|
B-14-12-12-14-12-------12-14-------12-14----12-------------|
G----------------------------11/13-------13----13-12\11-9--|
D----------------------------------------------------------|
A----------------------------------------------------------|
E----------------------------------------------------------|


E--------------------------------------------------------12-|
B--------------------------------------12/14-13-14-13-14----|
G----------9----9-11-11/13----13-12-13----------------------|
D-10/11-11---11------------13-------------------------------|
A-----------------------------------------------------------|
E-----------------------------------------------------------|
            
Submit corrections

comments powered by Disqus
↑ Back to top | Buck Owens Tabs for Happy Go Lucky. Lyrics for acoustic guitar and electric guitar. Tablatures and chords are parodies/interpretations of the original songs. You may use it for private study, scholarship, research or language learning purposes only