>
 >
Twenty-Eight Teeth

Twenty-Eight Teeth Bass Tabs

Buck-O-Nine - Twenty-Eight Teeth chords, tabs, tablatures, lyrics

Guitar lessons | Add/correct | Request | Top 50 tabs Artists:  A B C D E F G H I J K L M N O P Q R S T U V W X Y Z 0-9

Twenty-Eight Teeth Bass Tabs – Buck-O-Nine

CD, Sheet music, Poster

Do you like Twenty-Eight Teeth? Share with your friends now
Bass Tabs
/=slide down  \=slide up
P= a pause
r=let the note ring

Intro (00:01)
G|-----------------------------------------------|
D|------4-7-------------------------------4------|
A|-5--5-----------9---9--------4------------7-4--|
E|-----------7--7---7----5-5-5---5---5--5--------|
  (00:06-00:07)
G|------------------------------------------------|
D|-------4-7-------------------------------4------|
A|-5-5-5-----------9---9--------4------------7-4--|
E|------------7--7---7----5-5-5---5---5--5--------|

Verse 1
G|(a)---------------------------------------------|
D|-------4---------------------------------4------|
A|-5-5-5---5-------9---9--------4------------7-4--|
E|------------7--7---7----5-5-5---5---5--5--------|

G|(b)-----------------------------------------------------|
D|-------4------------------------------------------------|
A|-5-5-5---5-------9---9----------------------------------|
E|------------7--7---7----5-5-5-5-5-5-5-5-5-5-5-5-5-5-5-5-|
Verse 1 Pattern
a x3 (00:12)
b x1 (00:27-00:28)

Chorus 1
G|(A)----------------------------------------------
D|-------------------------------------------------
A|-------------------------------------------------
E|-3-3-3-3-3-3-3-3-5-5-5-5-5-5-5-5-7-7-7-7-7-7-7-7-

-----------------------------|
-----------------------------|
-----------------------------|
-/12-12-12-12-12-12-12-12-\--|

G|(B)---------------------------------|Quickly follow
D|------------------------------------|with Intro
A|------------------------------------|
E|-3-3-3-3-3-3-3-3-5-5-5-5-5-5-5-5-P--|
Chorus 1 Pattern
A x3 (00:32-00:33)
B x1 (00:48)

(Intro) (00:51)

(Verse 2)
Pattern
a x3 (01:01)
b x1 (01:17)

(Chorus 2)
Pattern
A x3 (01:22)
B x1 (01:38) Quickly follow with Bridge

Bridge (01:40)
G|-------------------------------------------------------
D|-------------------------------------------------------
A|--------------5-5----------------------------------5-5-
E|-7-7-7-7-7-P-------5-5-5-5-5-P-5-5-5--7-7-7-7-7-P------

----------------------------|
----------------------------|Quickly follow
---------------------4-7-P--|with Verse 3
--5-5-5-5-5---5--5-7--------|

Verse 3 (01:51)
G|------------------------------------------------|
D|-------4-7-------------------------------4------|
A|-5-5-5-----------9---9--------4------------7-4--|
E|------------7--7---7----5-5-5---5---5--5--------|
  (01:56)
G|--------------------------------------------------------|Quickly
D|-------4------------------------------------------------|follow
A|-5-5-5---5-------9---9----------------------------------|with
E|------------7--7---7----5-5-5-5-5-5-5-5-5-5-5-5-5-5-5-5-|Chorus 3

Chorus 3 (02:01)
G|-------------------------------------------------
D|-------------------------------------------------
A|-------------------------------------------------
E|-3-3-3-3-3-3-3-3-5-5-5-5-5-5-5-5-7-7-7-7-7-7-7-7-

----------------------------|
----------------------------|
----------------------------|
-/12-12-12-12-12-12-12-12-\-|

  (02:06-02:07)
G|-------------------------------------------------
D|-------------------------------------------------
A|-------------------------------------------------
E|-3-3-3-3-3-3-3-3-5-5-5-5-5-5-5-5-7-7-7-7-7-7-7-7-

-----------------------|
-----------------------|
-----------------------|
-/12-12-12-12-10r-8r-\-|

  (02:11-02:12)
G|-------------------------------------------------
D|-------------------------------------------------
A|-------------------------------------------------
E|-3-3-3-3-3-3-3-3-5-5-5-5-5-5-5-5-7-7-7-7-7-7-7-7-

----------------------------|
----------------------------|
----------------------------|
-/12-12-12-12-12-12-12-12-\-|

  (02:17)
G|----------------------------------|Follow with Outro
D|----------------------------------|
A|----------------------------------|
E|-3-3-3-3-3-3-3-3-5-5-5-5-5-5-5-5--|

Outro (02:19)
G|-------------------------------------------------|
D|---------4-7-------------------------------4-----|
A|-5-5-5-5-----------9---9--------4------------7-4-|
E|--------------7--7---7----5-5-5---5---5--5-------|
  (02:25)
G|(x2)--------------------------------------------|
D|-------4-7-------------------------------4------|
A|-5-5-5-----------9---9--------4------------7-4--|
E|------------7--7---7----5-5-5---5---5--5--------|
  (02:35)
G|-------------------------------------------------|
D|-------4-7-------------------------------4-------|
A|-5-5-5-----------9---9--------4------------7-5r--|
E|------------7--7---7----5-5-5---5---5--5---------|End

Coolest Band in the World!





Comments


Popular Buck-O-Nine tabs & chords
Less Than Comfortable Bass Tabs
Less Than Comfortable 2 Bass Tabs
Peach Fish 1 Bass Tabs
Shes Fat 1 Bass Tabs
Alberquerque Chords
Water In My Head Chords
A Lot In My Head Tabs
King Of The Box Tabs
Nineteen Tabs
On A Mission Tabs


Song lyrics



↑ Back to top | Tablatures and chords are parodies/interpretations of the original songs. You may use it for private study, scholarship, research or language learning purposes only
© 2014 AZChords.com Contact us | Privacy policy | DMCA | Add/correct tabs | Request tabs | Top 50 tabs