>
 >
Sappy Love Song

Sappy Love Song Bass Tabs

Buck-O-Nine - Sappy Love Song chords, tabs, tablatures, lyrics

Guitar lessons | Add/correct | Request | Top 50 tabs Artists:  A B C D E F G H I J K L M N O P Q R S T U V W X Y Z 0-9

Sappy Love Song Bass Tabs – Buck-O-Nine

CD, Sheet music, Poster

Do you like Sappy Love Song? Share with your friends now
Bass Tabs
I tried to be as accurate to Scott's bassline 
as possible. 

r= let the note sound 
/=slide down 

Intro 
G|-------------------------------------------------| 
D|-------------------------------------------------| 
A|------2r---3r---5r--3-2-0------2r---3r---5-3-2-0-| 
E|-3r-----------------------3r---------------------| 

Verse 1 (00:13) 
G|(a)------------------------------------------------| 
D|----------------------------5--3--2----------------| 
A|----2--5--2--2-----------3-----------5--3-2-0-2-0--| 
E|-3--------------2--0--2----------------------------| 
(00:30) 
G|(b)------------------------------------------------| 
D|----------------------------5--3--2----------------|Slide to 
A|----2--5--2--2-----------3-----------5--3--2--3-/--|the Chorus part 
E|-3--------------2--0--2----------------------------| 
Verse 1 Pattern 
a x3 
b x1 

Chorus 1 (00:35-00:36) 
G|--------------------------------------------------------------| 
D|-----9-9-7-7-5-5-----4-4-5-5-7-----2-2-3-3-5------------------| 
A|-7-7-------------5-5-----------3-3----------------2-2-3-3-5-5-| 
E|---------------------------------------------3--3-------------| 
(00:41) 
G|----------------------------------------------------------------| 
D|-----9-9-7-7-5-5-----4-4-5-5-7-7-----2-2-3-3-5------------------| 
A|-7-7-------------5-5-------------3-3----------------2-2-3-3-5r--| 
E|-----------------------------------------------3--3-------------| 

Verse 2 (00:47) 
Pattern 
a x1 
c x1 
a x1 
b x1 

G|(c)----------------------------------------------| 
D|----------------------------5--3--2--------------| 
A|----2--5--2--2-----------3-----------5--3--2--0--| 
E|-3--------------2--0--2--------------------------| 

Chorus 2 (01:09-01:10) 
G|--------------------------------------------------------------| 
D|-----9-9-7-7-5-5-----4-4-5-5-7-----2-2-3-3-5------------------| 
A|-7-7-------------5-5-----------3-3----------------2-2-3-3-5-5-| 
E|---------------------------------------------3--3-------------| 

G|-------------------------------------------------------------| 
D|-----9-9-7-7-5-5-----4-4-5-5-7-----2-2-3-3-5-----------------| 
A|-7-7-------------5-5-----------3-3----------------2-2-3-3-5r-| 
E|---------------------------------------------3--3------------| 

(Verse 3/Brass solos) (01:21) 
Pattern 
a x1 
c x6 
b x1 

Chorus 3 (02:06) 
G|---------------------------------------------------------| 
D|----9--7--5-----4-4-5-5-7-----2-2-3-3-5------------------| 
A|-7----------5-5-----------3-3----------------2-2-3-3-5-5-| 
E|----------------------------------------3--3-------------| 

G|-------------------------------------------------------------| 
D|-----9-9-7-7-5-5-----4-4-5-5-7-7-----2-2-3-3-5---------------| 
A|-7-7-------------5-5-------------3-3----------------2--3--5r-| 
E|-----------------------------------------------3--3----------| 

(Verse 4) (02:17-02:18) 
Pattern 
a x1 
c x2 
b x1 

Chorus 4 (02:40) 
G|----------------------------------------------------------| 
D|-----9-9-7-7-5-5-----4-4-7-----2-2-3-3-5------------------| 
A|-7-7-------------5-5-------3-3----------------2-2-3-3-5-5-| 
E|-----------------------------------------3--3-------------| 

G|--------------------------------------------------------------| 
D|-----9-9-7-7-5-5-----4-4-5-5-7-7-----2-2-3-3-5----------------| 
A|-7-7-------------5-5-------------3-3----------------2--3-3-5r-| 
E|-----------------------------------------------3--3-----------| 

Outro (02:51) =(Verse) 
Outro pattern 
c x3 

(03:08) 
G|(c)----------------------------------------------------| 
D|----------------------------5--3--2--------------------| 
A|----2--5--2--2-----------3-----------5-5-5-5--3--2-----| 
E|-3--------------2--0--2-----------------------------3r-|End 

Great song from Buck-O-Nine! 
Funniest break up/love song ever! 





Comments


Popular Buck-O-Nine tabs & chords
On A Mission Bass Tabs
On A Mission 1 Bass Tabs
Peach Fish 1 Bass Tabs
Round Kid Bass Tabs
Shes Fat Bass Tabs
Alberquerque Tabs
Im Not Dead Intro Tabs
Nineteen 1 Tabs
Round Kid 1 Tabs
Alberquerque Ukulele


Song lyrics



↑ Back to top | Tablatures and chords are parodies/interpretations of the original songs. You may use it for private study, scholarship, research or language learning purposes only
© 2014 AZChords.com Contact us | Privacy policy | DMCA | Add/correct tabs | Request tabs | Top 50 tabs