» » »

Buck-O-Nine, Round Kid Tabs (ver.2)

Artists:  A B C D E F G H I J K L M N O P Q R S T U V W X Y Z # 

Round Kid Tabs (ver.2)

Buck-O-Nine Tabs
 Rating:
4/5 (4 votes)
Round Kid lessons Tabs too difficult? Try these video lessons and learn fast
1
                
e---------------------------------------------|---------|-------------------
B---------------------------------------------|---------|-------------------
G---------------------------------------------|-7-7-7-7-|-7-7-7--6--4-------
D--12---12---12---12---12---12---12--11---11--|---------|-------------7-7-7-
A---------------------------------------------|-5-5-5-5-|-5-5-5--4-4--------
E--10---10---10---10---10---10---10---9----9--|---------|-------------5-5-5-                                  
          repeat the above 3x

e--------------------------------------------------|
B--------------------------------------------------|
G---7-7-7-7-------------9-9-9-9-9-9-9-9-9-9-9-9----|
D-----------------------9-9-9-9-9-9-9-9-9-9-9-9----|
A---5-5-5-5-------------7-7-7-7-7-7-7-7-7-7-7-7----|
E---------------0-0-0-0----------------------------|

Then the ska part:

Progression:  D         A       E       A            E

Chord
Diagrams: Fret: I           V           IV      
                 e----1--------|---1--------|---1------|
                 B----1---2----|---1--------|---1---2--|
                 G----1--------|--------2---|---1------|
                 D-------------|------------|----------|
                 A-------------|------------|----------|
                 E-------------|------------|----------|

Then with crunch:
Fret: V VII         V     VII          VII        V        V      VII
    D   E  x3   A     E     B      D      A   E

The strum is pretty trippy, your gonna have to play around with it.
            
Submit corrections

comments powered by Disqus
↑ Back to top | Buck-O-Nine Tabs for Round Kid. Lyrics for acoustic guitar and electric guitar. 1 Tablatures and chords are parodies/interpretations of the original songs. You may use it for private study, scholarship, research or language learning purposes only