» » »

My Town Bass tabs (ver.2)

Artists:  A B C D E F G H I J K L M N O P Q R S T U V W X Y Z # 

My Town Bass tabs (ver.2)

Buck-O-Nine
Rating:
0/5 (0 votes)

Hard to play? Try these video lessons and learn fast.
                Intro: (0:05)
G|-------------------------|
D|-------------------------|
A|-----7---9---7---(9)-----|
E|-5-------------------12\-|

Riff1: (0:11)
G|----------------------------------------------|
D|----------------------------------------------|
A|-----7---7/9-----9---9/10-999-10-777-9-54-----|
E|-5-5---5-----7-7---7----------------------7-5-|

you add an open ghost note E string the 2nd time you play the verse and so on

G|---|----------------------------------------------|
D|---|----------------------------------------------|
A|---|-----7---7/9-----9---9/10-999-10-777-9-54-----|
E|(0)|-5-5---5-----7-7---7----------------------7-5-|

Riff2: (0:55)
G|-------------------------------------------|
D|-------------------------------------------|
A|-5-7-5-----5-7-5-----------------------5h7-|
E|-------7-5-------7-5-7-5-2-0-2-5-0h5h7-----|

G|-----------------------------------------|
D|-----------------------------------------|
A|-5-7-5-----5-7-5-----7777-5555-4444-2222-|
E|-------7-5-------7-5---------------------|

Just listen to the song when to play these riffs. There are only 2 riffs so it wouldnt be that hard :)

Fill: (3:09)
...gimme peace of mind I can't be beat yeah...
G|----|
D|----|
A|-0*-|
E|----|

...drum rolls...

Outro: (3:15)
G|----------------------------------------------|
D|----------------------------------------------|
A|-----7---7/9-----9---9/10-999-10-777-9-54-----|
E|-5-5---5-----7-7---7----------------------7-5-|

                                      this time slowly
G|---------------------------------------|----------|
D|---------------------------------------|----------|
A|-----7---7/9-----9---9/10-999-10-777-9-|-5-4------|
E|-5-5---5-----7-7---7-------------------|-----7-5*-|

Legend:
*  - ring(emphasize and hold quite longer)
() - ghost note(dont emphasize and play it as short duration as possible)
/  - slide up
\  - slide down

This is 100% exact :) Nice and easy song to play so enjoy ^___^V
Viva La Ska! \m/_ ^___^ _\m/
            
Hard to play? Try these video lessons and learn fast. | Correct




comments powered by Disqus
↑ Back to top | Tablatures and chords are parodies/interpretations of the original songs. You may use it for private study, scholarship, research or language learning purposes only