» » »

Buck-O-Nine, A Lot In My Head Tabs (ver.1)

Artists:  A B C D E F G H I J K L M N O P Q R S T U V W X Y Z # 

A Lot In My Head Tabs (ver.1)

Buck-O-Nine Tabs
 Rating:
4/5 (4 votes)
A Lot In My Head lessons Tabs too difficult? Try these video lessons and learn fast
                ELECTRIC: 
Intro: Repeat 8 times, also repeated throughout verses. 
e|----3----1---------| 
B|----3----1---------| 
G|----4----2----1----| 
D|----5----3----2----| 
A|----5----3----2----| 
E|----3----1---------| 
G F E 

Chorus: 
e|----1---------| 
B|----1---------| 
G|----2----1----| 
D|----3----2----| 
A|----3----2----| 
E|----1---------| 
F E 

G F E 
I got a problem with confrontation 
G F E 
There's too much on my mind 
G F E 
I feel my shoulders getting seriously heavy 
G F E 
And my patience has died 

F E 
I got a lot in my head 
E F E 
And I'm wondering will it ever end 


G F E 
I can taste the tension your getting inside me 
G F E 
Felt it now for a week 
G F E 
All the traveling's got me tired and angsty 
G F E 
Got to get me some sleep 

G F E 
I started drinking 'bout a quarter to three 
G F E 
I thought it would help with stress 
G F E 
I started thinking about the problems that be 
* 
And now my head is a mess 

*=Play high e string open repeatedly 

ACOUSTIC: 
Intro: Also played throughout verses. 
e|------------------------------| 
B|----2p0h2---2--------0~~~~----| 
G|--------------4---------------| 
D|------------------------------| 
A|----------5--------2----------| 
E|------------------------------| 
G E 

Chorus: Same as electric guitar. 

Outro: Same as intro and verse, with some left notes left out, listen 
for exact.
            
Submit corrections

comments powered by Disqus
↑ Back to top | Buck-O-Nine Tabs for A Lot In My Head. Lyrics for acoustic guitar and electric guitar. Tablatures and chords are parodies/interpretations of the original songs. You may use it for private study, scholarship, research or language learning purposes only