>
 >
The Sky Is A Landfill

The Sky Is A Landfill Bass Tabs

Buckley Jeff - The Sky Is A Landfill chords, tabs, tablatures, lyrics

Guitar lessons | Add/correct | Request | Top 50 tabs Artists:  A B C D E F G H I J K L M N O P Q R S T U V W X Y Z 0-9

The Sky Is A Landfill Bass Tabs – Buckley Jeff

CD, Sheet music, Poster

Do you like The Sky Is A Landfill? Share with your friends now
Bass Tabs
Jeff Buckley

The Sky is a Landfill


All Strings tuned down one whole tone
DGCF

                                   
    q        e e  e  e e  e     w  
F--------|------------------|-------|
C--------|------------------|-------|
G---12\--|---4-4--R--1-1--1-|---0---|
D--------|------------------|-------|

                                                
    w     w    w    Q  Q  q    he   e e  e    w  
F------|----|-----|----------|-------------|-----|
C---2--|--4-|--6--|----------|-----------6-|--4--|
G------|----|-----|-7\-4--4/-|-7------7----|-----|
D------|----|-----|----------|------7------|-----|


                              
    e e e e  e e e e    w     
F--------------------|-----|
C--------------------|-----|
G---4-4-4-4--1-1-1-1-|--0--|
D--------------------|-----|


                                       
    e e e e e e e e   e e e e e e e e  
F-------------------|-----------------|
C---2-2-2-2-2-2-2-2-|-----------------|
G-------------------|-0-0-0-0-0-0-0-0-|
D-------------------|-----------------|

    e e e e e e e e   e e e e e e e e  
F-------------------|-----------------|
C---2-2-2-2-2-2-2-2-|-----------------|
G-------------------|-0-0-0-0-0-0-0-0-|
D-------------------|-----------------|

    e e e e e e e e   e e e e e e e e  
F-------------------|-----------------|
C---2-2-2-2-2-2-2-2-|-----------------|
G-------------------|-0-0-0-0-0-0-0-0-|
D-------------------|-----------------|


                            
    e e e  e e e  e e    w  
F---------------------|-----|
C-------6-------------|-----|
G-----5----4-4/7--7\4-|--7--|
D---7-----------------|-----|

                                                 
    H  q   w    Q  Q  q        w    he    e e e  
F--------|----|--------------|----|-------6-6-6-|
C---4----|-6--|--------------|----|-4-----------|
G------4-|----|-7--4--4---/--|-7--|-------------|
D--------|----|--------------|----|-------------|

                                             
    e e e e  e e e e   Q  e e  s s  e e     
F--------------------|------------------|
C--------------------|----7-7-----------|
G---4-4-4-4--1-1-1-1-|-0-------4----4-6-|
D--------------------|-----------5------|


F-------------------|-----------------|
C---2-2-2-2-2-2-2-2-|-----------------|
G-------------------|-0-0-0-0-0-0-0-0-|
D-------------------|-----------------|

    e e e e e e e e   e e e e e e e e  
F-------------------|-----------------|
C---2-2-2-2-2-2-2-2-|-----------------|
G-------------------|-0-0-0-0-0-0-0-0-|
D-------------------|-----------------|


                     
    e e e e e e e e     q q  e  Q       
F-------------------|--------------|                    
C-------------------|-----------7--|
G-------------------|-----6--7-----|
D---7-7-7-7-7-7-7-7-|---9----------|

                                                       
    e e e  e  e e e e     w    e e e  e e e  e e    w  
F-----------------------|----|-------------------|----|
C-------6---------------|----|-----6-------------|----|
G-----5----4--4/7-7/11--|-11-|---5----4-4/7--7\4-|--7-|
D---7-------------------|----|-7-----------------|----|


                                         
    e e e  e  e e e  e+  w    w    w      
F----------------------|----|---|-----|
C-------6--------------|----|---|-----|
G-----5----4--4/7-7----|----|-R-|-----|
D---7----------------0^|-0--|---|--0--|


                          
       e s s e e e e e e  
F------------------------|
C------------------------|
G------6-7-6-7-----------|
D--------------9-7-9-9-9-|Play x4


                                                                    
    e e e e e e e e    e e e e e e e e     e e e e  e e e e         
F-------------------|-------------------|-----------------------|
C-------------------|-------------------|-----------------------|
G---0-0-0-0-0-0-0-0-|-------------------|--6-6-6----------------|
D-------------------|--4-4-4-4-4-4-4-4--|--------7--0-2-2-0-----|Play x2


                                                                      
     w   h   h   w   w   w   w    w   q e h  e    h e  e e  e   H  q  
F------|-------|---|---|---|-13-|-R-|----------|--------------|----6-|
C------|-------|---|---|---|----|---|----------|------------6-|-4----|
G------|-----R-|-R-|-0-||----|---|-R-R-4--4-|--7-7----7----|------|
D----5-|-5-----|---|---|---|----|---|----------|-------7------|------|


                                             
    e e e e  e e e e   q  e e e  e  e e   e  
F--------------------|------------------|
C--------------------|----7-7-7---------|
G---4-4-4-4--1-1-1-1-|-0------------4-6-|
D--------------------|-----------5------|


    e e e e e e e e   e e e e e e e e  
F-------------------|-----------------|
C---2-2-2-2-2-2-2-2-|-----------------|
G-------------------|-0-0-0-0-0-0-0-0-|
D-------------------|-----------------|

    e e e e e e e e     q q e s s s s s s 
F-------------------|---------6-8-9-8-6---|
C---2-2-2-2-2-2-2-2-|-------------------9-|
G-------------------|---4-6-7-------------|
D-------------------|---------------------|

                       
                                       
    e e E  s e e e e   q  q  e  Q      
F--------------------|--------------|
C---6-6-6--4-6-4-----|----------7---|
G----------------7-6-|-4--6--7------|
D--------------------|--------------|


                              
  e e e  e  e e e  e+  w  
F--------------------|---|
C-----6--------------|---|
G---5----4--4/7-7----|---|
D-7----------------0^|-0-|Play x3


                                
     e s s e e e e e e    w     
F-----------------------|---|
C-----------------------|---|
G----6-7-6-7------------|---|
D------------9-0-9-9-9--|-0-|


Guitar solo bit and outro

                        
     e s s e e e e e e  
F----------------------|
C----------------------|
G----6-7-6-7-----------|
D------------9-7-9-9-9-|play x 3

                                                  
     e s s e   s  s  s  s   s  s  s  s  s  s      
F---------------------------------13-13-13-13-|
C--------------------11-11--14-14-------------|
G----6-7-6-7---14-14--------------------------|
D---------------------------------------------|

                        
     e s s e e e e e e  
F----------------------|
C----------------------|
G----6-7-6-7-----------|
D------------9-7-9-9-9-|play x6


                                                             
     e s s e  s s s  s  s s s  s  s s    e s s e e e e  e  e  
F-------------------------------------|----------------------|
C-------------9-9-11-11-9-9-11-11-9-9-|----------------------|
G----6-7-6-7--------------------------|--6-7-6-7-------/11-9-|
D-------------------------------------|----------9-7-9-------|
                                                             
                                                             
                         
      e s s e e e e e e  
F-----------------------+
C-----------------------|
G-----6-7-6-7-----------|
D-------------9-7-9-9-9-+playx4


                
          H  q  
F----------------|
C------------9---|
G---------7------|
D----------------|





Comments


Popular Buckley Jeff tabs & chords
Grace Bass Tabs
I Know We Could Be So Happy Baby Chords
I Want Someone Badly Chords
Lilac Wine Chords
Lover You Shouldve Come Over Chords
Calling You Tabs
Eternal Life 1 Tabs
Last Goodbye Tabs
Mojo Pin 1 Tabs
What Will You Say 1 Tabs


Song lyrics



↑ Back to top | Tablatures and chords are parodies/interpretations of the original songs. You may use it for private study, scholarship, research or language learning purposes only
© 2014 AZChords.com Contact us | Privacy policy | DMCA | Add/correct tabs | Request tabs | Top 50 tabs