» » »

Buckley Jeff, So Real Tabs (ver.1)

Artists:  A B C D E F G H I J K L M N O P Q R S T U V W X Y Z # 

So Real Tabs (ver.1)

Buckley Jeff Tabs
Rating:
0/5 (0 votes)
Hard to play? Try these video lessons and learn fast.
                This is my first tab, but let me assure you that it is about 99.9% correct.  I got it from watching some videos of him playing it.  There has got to be more Jeff Buckley tabs. (Please!)



INTRO:
------

|----------------------------------|----------------------------------|
|----------------------------------|----------------------------------|
|---11s14--17--17------------------|--14--14--15--15--15--15--15--15--|
|---0------0---0---15--15--14--12--|--12------------------------------|
|----------------------0---0---0---|--0---13--13--13--13--13--13--13--|
|----------------------------------|----------------------------------|

|----------------------------------|-------------------------------------|
|----------------------------------|----------------------------------10-|
|--15----------12--12--12--12--14--|--14--14------------------7-------7--|
|--------------12--12--12--12--12--|--12--12---------------0--7-------7--|
|--12--12--12--12--12--12--12--12--|--12--12--8--8--8-7h8--0--7h8--8-----|
|----------------------------------|-------------------------------------|



VERSE 1:
--------

|--------------------------|-----------------|-----------|---3-3---8-8-8-|
|---11-11-11-11-12-12-12-12|----12-12-12-----|----7-7-7--|---3-3---8-8-8-|
|----9--9--9--9--9--9--9--9|----11-11-11-----|----6-6-6--|---0-0---0-0-0-| Play
|--------------------------|-----9--9--9-----|----4-4-4--|---------------|  x2
|---10-10-10-10-10-10-10-10|-----------------|-----------|---2-2---7-7-7-|
|--------------------------|-10--------------|--5--------|-3-3-3---8-8-8-|

|-7---------------|
|-7---------------|
|-0---------------|
|-----------------|
|-6---------------|
|-7---------------|



CHORUS 1:
---------

|--0--0--0--0--0--0--0--0--0--0--|--0--0--0--0--0--0--0--0--0--0--|
|--10-10-10-10-10-10-10-10-10-10-|--5--5--5--5--5--5--5--5--5--5--|
|--9--9--9--9--9--9--9--9--9--9--|--5--5--5--5--5--5--5--5--5--5--| Play
|--7--7--7--7--7--7--7--7--7--7--|--4--4--4--4--4--4--4--4--4--4--|  x3
|--------------------------------|--0--0--0--0--0--0--0--0--0--0--|
|--8--8--8--8--8--8--8--8--8--8--|--5--5--5--5--5--5--5--5--5--5--|

|--------------------------|-----------------|-----------|---3-3---8-8-8-|
|---11-11-11-11-12-12-12-12|----12-12-12-----|----7-7-7--|---3-3---8-8-8-|
|----9--9--9--9--9--9--9--9|----11-11-11-----|----6-6-6--|---0-0---0-0-0-| Play
|--------------------------|-----9--9--9-----|----4-4-4--|---------7-7-7-|  x2
|---10-10-10-10-10-10-10-10|-----------------|-----------|---2-2---------|
|--------------------------|-10--------------|--5--------|-3-3-3---8-8-8-|

|-7---------------|
|-7---------------|
|-6---------------|
|-0---------------|
|-----------------|
|-7---------------|




VERSE 2:
--------

|--------------------------|-----------------|-----------|---3-3---8-8-8-|
|---11-11-11-11-12-12-12-12|----12-12-12-----|----7-7-7--|---3-3---8-8-8-|
|----9--9--9--9--9--9--9--9|----11-11-11-----|----6-6-6--|---0-0---0-0-0-| Play
|--------------------------|-----9--9--9-----|----4-4-4--|---------------|  x2
|---10-10-10-10-10-10-10-10|-----------------|-----------|---2-2---7-7-7-|
|--------------------------|-10--------------|--5--------|-3-3-3---8-8-8-|

|-7---------------|
|-7---------------|
|-0---------------|
|-----------------|
|-6---------------|
|-7---------------|



CHORUS 2:
---------

|--0--0--0--0--0--0--0--0--0--0--|--0--0--0--0--0--0--0--0--0--0--|
|--10-10-10-10-10-10-10-10-10-10-|--5--5--5--5--5--5--5--5--5--5--|
|--9--9--9--9--9--9--9--9--9--9--|--5--5--5--5--5--5--5--5--5--5--| Play
|--7--7--7--7--7--7--7--7--7--7--|--4--4--4--4--4--4--4--4--4--4--|  x3
|--------------------------------|--0--0--0--0--0--0--0--0--0--0--|
|--8--8--8--8--8--8--8--8--8--8--|--5--5--5--5--5--5--5--5--5--5--|



INTERLUDE: - Distortion.
----------

(Just mess around with your guitar, can’t really help you here)



VERSE 3:
--------
|--------------------------|-----------------|-----------|---3-3---8-8-8-|
|---11-11-11-11-12-12-12-12|----12-12-12-----|----7-7-7--|---3-3---8-8-8-|
|----9--9--9--9--9--9--9--9|----11-11-11-----|----6-6-6--|---0-0---0-0-0-| Play
|--------------------------|-----9--9--9-----|----4-4-4--|---------------|  x2
|---10-10-10-10-10-10-10-10|-----------------|-----------|---2-2---7-7-7-|
|--------------------------|-10--------------|--5--------|-3-3-3---8-8-8-|

|-7---------------|
|-7---------------|
|-0---------------|
|-----------------|
|-6---------------|
|-7---------------|



CHORUS:
-------

|--0--0--0--0--0--0--0--0--0--0--|--0--0--0--0--0--0--0--0--0--0--|
|--10-10-10-10-10-10-10-10-10-10-|--5--5--5--5--5--5--5--5--5--5--|
|--9--9--9--9--9--9--9--9--9--9--|--5--5--5--5--5--5--5--5--5--5--| Play
|--7--7--7--7--7--7--7--7--7--7--|--4--4--4--4--4--4--4--4--4--4--|  x3
|--------------------------------|--0--0--0--0--0--0--0--0--0--0--|
|--8--8--8--8--8--8--8--8--8--8--|--5--5--5--5--5--5--5--5--5--5--|



OUTRO: (play throughout the end of the song)
------

|-------3-3-3-3-3-3-|
|-------3-3-3-3-3-3-|
|-------2-2-2-2-2-2-|
|----4--0-0-0-0-0-0-|
|-2-4---------------|
|-----3-3-3-3-3-3-3-|

|-0-0---0-0-0---0-0-0-0-0-0-|-0-0---0-0-0---0-0-0-0-0-0-|
|-3-3---3-3-3---3-3-5-5-5-5-|-3-3---3-3-3---3-3-5-5-5-5-|
|-3-3---3-3-3---3-3-5-5-5-5-|-3-3---3-3-3---3-3-5-5-5-5-|
|-2-2-2-2-2-2-2-2-2-4-4-4-4-|-2-2-2-2-2-2-2-2-2-4-4-4-4-|
|-------------------0-------|-------------------0-------|
|-3---3-3-----3-------------|-3---3-3-----3-------------|

|-------3-3-3-3-3-3-|
|-------3-3-3-3-3-3-|
|-------2-2-2-2-2-2-|
|----4--0-0-0-0-0-0-|
|-2-4---------------|
|-----3-3-3-3-3-3-3-|

|-0-0-0-0-0-0-0-0-0-0-0-0-|
|-3-3-3-3-3-3-3-3-3-3-3-0-|
|-3-3-3-3-3-3-3-3-3-3-3-0-|
|-2-2-2-2-2-2-2-2-2-2-2-0-|
|-------------------------|
|-3-----3-----3-----3-----|
            

comments powered by Disqus
↑ Back to top | Buckley Jeff Tabs for So Real. Lyrics for acoustic guitar and electric guitar. Tablatures and chords are parodies/interpretations of the original songs. You may use it for private study, scholarship, research or language learning purposes only