>
 >
Last Goodbye

Last Goodbye Bass Tabs

Buckley Jeff - Last Goodbye chords, tabs, tablatures, lyrics

Guitar lessons | Add/correct | Request | Top 50 tabs Artists:  A B C D E F G H I J K L M N O P Q R S T U V W X Y Z 0-9

Last Goodbye Bass Tabs – Buckley Jeff

CD, Sheet music, Poster

Do you like Last Goodbye? Share with your friends now
Bass TabsChordsChords v2TabsTabs v2
The previous tab of this song by dan kind was a pretty poor effort with just
the one riff which was largely incorrect, so here is my attempt.

tuned (same as guitar)- d g d g

Come in behind slide guitar intro with

0:13 CHORUS RIFF: (x2)

G|----------------------------------------------------|
D|----------------------------------------------------|
G|---2---2---2-----5---5-----0---0---0-----7---7------|
D|-4---4---4---4/7---7-----2---2---2---2/9---9--------|

0:24 MAIN RIFF: (x4)

G|--------------------------|
D|--------------------------|
G|-----7--------------------|
D|-0-0-----0h5p40h4h5p4-----|


0:36 CHORUS RIFF: (x2)

0:47 CHORUS ENDING: (x1)

G|-----------------------------------------------------------------|
D|-----------------------------------------------------------------|
G|---2---2---2-----5---5-----0---0---0-----7-9-11------------------|
D|-4---4---4---4/7---7-----2---2---2---2/9--------11---11h12---5---|


0:59 VERSE 1: (x1)

G|-----------------------------------------------------------------|
D|-------------------------------------------------------7-5-4-----|
G|----7--------------7---4h6h7--------------------------------7---9|
D|-0-----4h57p5--0-0------------9---7-7---2---2/4-4/5--------------|

G|---------------------|
D|----------------2-4--|
G|-----------4-6-7-----|
D|7---9--5-------------|

1:21 MAIN RIFF: (x3)

1:29 MAIN RIFF VARIATION: (x1)

G|--------------------------|
D|----------------7-5-4-----|
G|-----7--------------------|
D|-0-0-----0h5p4------------|

1:31 VERSE 2: (x1)

G|-----------------------------------------------------------------|
D|-----------------------------------------------------------------|
G|----7--------------7---4h6h7--------------------7-----2---2---2--|
D|-0-----4h57p5--0-0------------9---7---5---2---2/----4---4---4---4|

G|---------------------|
D|---------------------|
G|-2----0---0---0---0--|
D|----2---2---2---2----|

1:53  BRIDGE: (x2)

G|-----------------------------------------|
D|--------------2h3p2---------------3------|
G|--55-55-55-55----------55-55-55-5--------|
D|-----------------------------------------|

2:06 CHORUS RIFF: (x2)

2:17 CHORUS ENDING: (x1)

2:27 STRING SOLO 1: (x1)  This is basically the main riff
with a few different variations.

G|---------------------------------------------------|
D|---------------------------------------------------|
G|-----7--------------------------7------------------|
D|-0-0-----0h5p40h4h5p4-------0-0-----0h5p4-R--------|

G|---------------------------------------------------|
D|----------------------------------------------7----|
G|-----7--------------------------7---------6-7------|
D|-0-0-----0h5p40h4h5p4-------0-0-----0h5p4----------|

G|---------------------------------------------------|
D|---------------------------------------------------|
G|-----7---------7-4---------------7--------7-4------|
D|-0-0-----0h5p4--------------0-0-----0h5p4----------|

G|---------------------------------------------------|
D|---------------------------------------------------|
G|-----7--------------------------7---------7-4------|
D|-0-0-----0h5p40h4h5p4-------0-0-----0h5p4----------|


2:49 STRING SOLO 2:(x1)

G|-----------------------------------------------------------------|
D|--------7----------------------7-----2-4--5-----------7-----7----|
G|-4--6-7---6-7-4---7\4---4--6-7---6-7-----------4--6-7---6-7------|
D|-----------------------------------------------------------------|

3:05 INTERLUDE:(x3)

G|------------------------------------|
D|------------------------------------|
G|-7-77-7-77-44---4-------------------|
D|------------------7-77-7-77-55-5----|

3:27 INTERLUDE ENDING: (x1)

G|---------------------------|
D|---------------------------|
G|-9---9------5----\7--------|
D|------9--7-----------------|

3:33 CHORUS RIFF:(x2)

3:44 MAIN RIFF:(x4)

3:55 MAIN RIFF VARIATION 2:(x4)

G|--------------------------|
D|--------------------------|
G|-----7---------7-4--------|
D|-0-0-----0h5p4------------|

4:06 BRIDGE : (x2)


4:16 CODA: (x1)

G|---------------------------|
D|-0---2--4--5---------------|
G|---------------5-----------|
D|---------------------------|



And that's it,a sick song to play with all the fills and variations.
Any correction and/or comments send them to





Comments


Popular Buckley Jeff tabs & chords
Everybody Here Wants You Bass Tabs
Grace Chords
Last Goodbye 2 Chords
So Real Chords
Grace Tabs
Grace 1 Tabs
Hallelujah Tabs
Hallelujah 1 Tabs
Mojo Pin 1 Tabs
The Man That Got Away Tabs


Song lyrics



↑ Back to top | Tablatures and chords are parodies/interpretations of the original songs. You may use it for private study, scholarship, research or language learning purposes only
© 2014 AZChords.com Contact us | Privacy policy | DMCA | Add/correct tabs | Request tabs | Top 50 tabs