>
 >
Hallelujah 1

Hallelujah 1 Guitar Tabs

Buckley Jeff - Hallelujah 1 chords, tabs, tablatures, lyrics

Guitar lessons | Add/correct | Request | Top 50 tabs Artists:  A B C D E F G H I J K L M N O P Q R S T U V W X Y Z 0-9

Hallelujah 1 Guitar Tabs – Buckley Jeff

CD, Sheet music, Poster

Do you like Hallelujah 1? Share with your friends now
ChordsTabsTabs v2
Hallelujah - Jeff Buckley

This is a much improved version of Jeff Buckley's "Hallelujah"

Intro
(Slow, gradually working to a 6/8 time)

|----|-------------|---------------|-5--5---5--5--|------------|
|--8-|-10-10--10-8-|-------------8-|-------5--5--8|5--5--5--5--|
|-9--|-8--8--------|-9--9-------9--|-8--8-8--8--8-|--5--5--5--5|
|----|-------------|-7--7----------|--------------|77--7-----7-|
|----|-------------|---------------|--------------|-------0----|
|----|-------------|---------------|--------------|------------|

|------------|------------|------------|------------|
|------------|------------|----44-44-44|-55-55-55-55|
|--5--5--5--5|--5--5--5--5|--5-55-55-55|-55-55-55-55|
|-7--7--7--7-|-7--7--7--7-|-7----------|-77-77-55-55|
|6--6--6--6--|7--7--7--7--|6--6--6--6--|7--7--5--5--|
|------------|------------|------------|------------|

|--------------------|---------------------|
|-1010-1010-1010-1010|-1010-1010-1010---12\|
|-1010-1010-1010-1010|-1010-1010-1010---12\|
|-1010-1010-1010-1010|-1010-1010-1010---12\|
|--------------------|-8-8--8-8--8-8----10\|
|8----8----8----8----|8----8----8----8-----|

Verses
Part 1

|----8-----8--|
|----8----58--|
|---9-9--5--5-|	X 4 For intro then
|-10----------|
|-------------|
|8-----75----7|
Heard.. Secret
David.. Pleased

First Verse
Part 1 X 2, 

Part 2

|------------------------|---8------------------|
|------10----10----12----|--8-8-12h13p12------12|
|10--10--10----10----12--|-9---9--------12--12--|
|--10------10----10----12|----------------12----|
|8-----8-----8-----10----|------10--------10----|
|------------------------|8---------------------|
You... really care.music  Do ya............. 


Use similar picking method for next part of verse and chorus.
The chords are:

        C			 F           G
Well it goes like this, the fourth, the fifth........
    Am                 F
The minor fall and the major lift
    G               E           Am
The baffled king composing Hallelujah

C G  F           Am
Hallelujah, Hallelujah
C G  F           CGC ( Last C into Part 1 again )
Hallelujah, Hallelujah

All verses are the same then it has this little solo bit that goes like this:

2nd time through
C G  F           CGF ( Lead into Pt 3 )
Hallelujah, Hallelujah


Part 3

|-----8---8----8-----|---7-7---5-5|--------------------|----8-8---7-7|
|-----10--10---10-10-|---5-5---5-5|----10--10----10--10|----8-8---8-8|
|---10--10--------10-|----5-----5-|----10--10----10--10|---9-9---7-7-|
|-10---------10------|--5-----5---|--10--10----10--10--|-10-----5----|
|8----------8----7--5|-7-----7----|78--------78--------|7------5-----|
|--------------------|5-----5-----|--------------------|-------------|

Part 1 x 2

Part 4 ( Leading in from Part 1 )
(Slow)
|-|--------------------------|
|-|----10---13---15--17--15--|
|9|10------------------------|
|-|--------------------------|
|7|8-------------------------|
|-|----12---15---17--19--17--|

Part 5

Solo

|----------------8---/10|----12----12----13----13|15----15----15----15----|
|13----13------10--/12--|--13----13----13----13--|----15----15----15----15|
|--12----12--10--/12----|14----14----14----14----|--16----16----16----16--|
|----14----14-----------|------------------------|------------------------|
|-----------------------|------------------------|------------------------|
|-----------------------|------------------------|------------------------|

|------12-17------------|13----------15----------|
|----13-----------------|----13----------15------|
|14---------------------|14----------16----------|
|-----------------------|----15----------17------|
|-----------------------|------------------------|
|-----------------------|------------------------|


Then back into verse again.

The Last chorus ends on an improvised strumming progression of C and Am, then finally finishes on the C.

That's about it really !!

Here are the words

Well I heard there was a secret chord
That David played and it pleased please the Lord
But you don't really care for music, do ya
Well it goes like this, the fourth, the fifth
The minor fall and the major lift
The baffled king composes Hallelujah

Well your faith was strong, but you needed proof
You saw her bathing on the roof
Her beauty in the moonlight overthrew ya
She tied you to her kitchen chair
And she broke your throne, and she cut your hair
And from your lips you drew Hallelujah

Well baby I've been here before
I've seen this room and I've walked this floor, you know
I used to live alone before I knew ya
And I've seen your flag on the marble arch
And love is not a victory march
It's a cold and it's a broken Hallelujah

Well the was a time when you let me know
What's really going on below
But now you never show that to me do ya
But remember when I moved in you
And the Holy Dove was moving too
And every breath we drew was Hallelujah

Maybe there's a God above
But all I have ever learned from love
Was how to shoot somebody who outdrew ya
And it's not a cry that you hear at night
It's not somebody who's seen the light
It's a cold and it's a broken Hallelujah


Hope you can figure it all out.
All the best
Craig Hindman
Melbourne, Victoria
Australia.





Comments


Popular Buckley Jeff tabs & chords
Last Goodbye Bass Tabs
I Want Someone Badly Chords
Lover You Shouldve Come Over Chords
Satisfied Mind Chords
Yard Of Blonde Girls Chords
Grace Tabs
Hallelujah Tabs
Hallelujah Chords Tabs
Opened Once Tabs
Vancouver Tabs


Song lyrics



↑ Back to top | Tablatures and chords are parodies/interpretations of the original songs. You may use it for private study, scholarship, research or language learning purposes only
© 2014 AZChords.com Contact us | Privacy policy | DMCA | Add/correct tabs | Request tabs | Top 50 tabs