» » »

Buckley Jeff, Dream Brother Tabs (ver.1)

Artists:  A B C D E F G H I J K L M N O P Q R S T U V W X Y Z # 

Dream Brother Tabs (ver.1)

Buckley Jeff Tabs
 Rating:
4/5 (4 votes)
Dream Brother lessons Tabs too difficult? Try these video lessons and learn fast
1
                Beautiful song, and very simple once you've got the hang of it.

INTRO:

E----------------------------------------------------
B--4---4--3---3---3--1---1--0--1--3---3--------------
G----0------0---0------0------------0----------------
D----------------------------------------------------
A----------------------------------------------------
E----------------------------------------------------

E-------------------------------------1--------------
B--4---4--3---3---3--1---1--0--1--3------------------
G----0------0---0------0------------0----------------
D----------------------------------------------------
A----------------------------------------------------
E----------------------------------------------------

E------1------------------------------1--------------
B--4------3---3---3--1---1--0--1--3------------------
G----0------0---0------0------------0----------------
D----------------------------------------------------
A----------------------------------------------------
E----------------------------------------------------

E------1----------------------------1--3-------------
B--4------3---3---3--1---1--0--1--3------------------
G----0------0---0------0-----------------------------
D----------------------------------------------------
A----------------------------------------------------
E----------------------------------------------------

CHORDS:

Fm7       G
There is a child sleeping near his twin

    Fm7         G
The pictures go wild in a rush of wind

Fm7       G
That dark angel he is shuffling in

          Bb                Cm               
Watching over them with his black feather wings unfurled

Fm7  G  Fm7  G

Fm7           G
The love you lost with her skin so fair

    Fm7           G
Is free with the wind in her butterscotch hair

    Fm7        G
Her green eyes bloom goodbyes

          Bb 
With her head in her hands

         Cm                         Fm7  G
and your kiss on the lips of another

        Bb               Cm                      Fm7  G
Dream Brother with your tears scattered round the world.


Gm7                            Cm
Don't be like the one who made me so old

          D7                               Eb
Don't be like the one who left behind his name

                Bb                    Cm
'Cause they're waiting for you like I waited for mine

     D7          Eb             Fm7  G (repeat)
And nobody ever came...

(Break)
Cm       F/F  F/G
Cm       F/F  F/G
C major  F/F  F/G
C major  F/F  F/G


Fm7        G
I feel afraid and I call your name

Fm7         G
I love your voice and your dance insane

  Fm7       G
I hear your words and I know your pain

      Bb                        Cm                   Fm7  G
Your head in your hands and her kiss on the lips of another

                 Bb
Your eyes to the ground

         Cm                   Fm7  G
and the world spinning round forever

               Bb             Cm         Fm7 G
Asleep in the sand with the ocean washing over...





Like I said, very beautiful and simple... Listen to it to get it
corrections, complaints, or just to simply talk about Jeff Buckley...
            
Submit corrections

comments powered by Disqus
↑ Back to top | Buckley Jeff Tabs for Dream Brother. Lyrics for acoustic guitar and electric guitar. 1 Tablatures and chords are parodies/interpretations of the original songs. You may use it for private study, scholarship, research or language learning purposes only