>
 >
Summer Of 69

Summer Of 69 Guitar Tabs

Bryan Adams - Summer Of 69 chords, tabs, tablatures, lyrics

Guitar lessons | Add/correct | Request | Top 50 tabs Artists:  A B C D E F G H I J K L M N O P Q R S T U V W X Y Z 0-9

Summer Of 69 Guitar Tabs – Bryan Adams

CD, Sheet music, Poster

Do you like Summer Of 69? Share with your friends now
Bass TabsBass Tabs v2Bass Tabs v3ChordsChords v2TabsTabs v2Tabs v3Tabs v4
-0-----2-----3---|---2-----0---2---|-----------------|-----------------|------
-3-3-----3-----3-|-----3-----------|-0-----2-----3---|---2-----0---2---|------
-----2-----2-----|-2-----2---2-----|-2-------2-----2-|-----2-----------|------
-----------------|---------------2-|---2-------2-----|-2-----2---2---0-|------
-----------------|-----------------|-----0-----------|-----------------|------
-----------------|-----------------|-----------------|-----------------|------
 Intro:                                                            (2x)       

-0-----2-----3---|---2-----0---2---|-----------------|-----------------|------
-3-3-----3-----3-|-----3-----------|-0-----2-----3---|---2-----0---2---|------
-----2-----2-----|-2-----2---2-----|-2-------2-----2-|-----2-----------|------
-----------------|---------------2-|---2-------2-----|-2-----2---2---0-|------
-----------------|-----------------|-----0-----------|-----------------|------
-----------------|-----------------|-----------------|-----------------|------
 Verse 1:                                                          (4x)       

-----------------|-----------------|-------2---2-2-2-|-----------------|------
-------3---------|-------0-----2---|-------3---3-3-3-|-----------------|-3----
-----4-4---4---4-|-----2---2-----2-|-----2-2---2-2-2-|-------0-----0---|-4----
---4---------4---|---2-------2-----|-0-----0---0-0-0-|-----0-------0---|-4----
-2---------------|-0---------------|-----------------|---2---------2---|-2----
-----------------|-----------------|-----------------|-3-----------3---|------
 Bridge:  bm               A                 D                 G              

-------------|-----------------|-2---2-2---2-2-2-|-3---3---3---3---|----------
-3-3---3-3-3-|-2---2-2---2-2-2-|-3---3-3---3-3-3-|-3---3---3---3---|-------3--
-4-4---4-4-4-|-2---2-2---2-2-2-|-2---2-2---2-2-2-|-0---0---0---0---|-----4-4--
-4-4---4-4-4-|-2---2-2---2-2-2-|-0---0-0---0-0-0-|-0---0---0---0---|---4---4--
-2-2---2-2-2-|-0---0-0---0-0-0-|-----------------|-2---2---2---2---|-2-----2--
-------------|-----------------|-----------------|-3---3---3---3---|----------
    bm                A                 D                 G               bm  

---------|-----------------|--------------------------------------------------
---------|-2---------------|--------------------------------------------------
---4---4-|-2---------------|--------------------------------------------------
-----4---|-2---------------|--------------------------------------------------
---------|-0---------------|--------------------------------------------------
---------|-----------------|--------------------------------------------------
           A                                                                  

-0-----2-----3---|---2-----0---2---|-----------------|-----------------|------
-3-3-----3-----3-|-----3-----------|-0-----2-----3---|---2-----0---2---|------
-----2-----2-----|-2-----2---2-----|-2-------2-----2-|-----2-----------|------
-----------------|---------------2-|---2-------2-----|-2-----2---2---0-|------
-----------------|-----------------|-----0-----------|-----------------|------
-----------------|-----------------|-----------------|-----------------|------
 Intro to verse 2:                                                            

-0-----2-----3---|---2-----0---2---|-----------------|-----------------|------
-3-3-----3-----3-|-----3-----------|-0-----2-----3---|---2-----0---2---|------
-----2-----2-----|-2-----2---2-----|-2-------2-----2-|-----2-----------|------
-----------------|---------------2-|---2-------2-----|-2-----2---2---0-|------
-----------------|-----------------|-----0-----------|-----------------|------
-----------------|-----------------|-----------------|-----------------|------
 Verse 2:                                                          (2x)       

-----------------|-----------------|-2---2-2---2-2-2-|-3---3-3---3-3-3-|------
-3---3-3---3-3-3-|-2---2-2---2-2-2-|-3---3-3---3-3-3-|-3---3-3---3-3-3-|-3----
-4---4-4---4-4-4-|-2---2-2---2-2-2-|-2---2-2---2-2-2-|-0---0-0---0-0-0-|-4----
-4---4-4---4-4-4-|-2---2-2---2-2-2-|-0---0-0---0-0-0-|-0---0-0---0-0-0-|-4----
-2---2-2---2-2-2-|-0---0-0---0-0-0-|-----------------|-2---2-2---2-2-2-|-2----
-----------------|-----------------|-----------------|-3---3-3---3-3-3-|------
 Bridge:   bm             A                  D                 G  (2x)        

-------------|-----------------|----------------------------------------------
-3-3---3-3-3-|-2---------------|----------------------------------------------
-4-4---4-4-4-|-2---------------|----------------------------------------------
-4-4---4-4-4-|-2---------------|----------------------------------------------
-2-2---2-2-2-|-0---------------|----------------------------------------------
-------------|-----------------|----------------------------------------------
    bm         A                                                              

-0-----2-----3---|---2-----0---2---|-----------------|-----------------|------
-3-3-----3-----3-|-----3-----------|-0-----2-----3---|---2-----0---2---|------
-----2-----2-----|-2-----2---2-----|-2-------2-----2-|-----2-----------|------
-----------------|---------------2-|---2-------2-----|-2-----2---2---0-|------
-----------------|-----------------|-----0-----------|-----------------|------
-----------------|-----------------|-----------------|-----------------|------
 Chorus:                                                           (2x)       


Interlude: |F| |Bb| |C| |dm| |F| |Bb| |C| |C|                                


-0-----2-----3---|---2-----0---2---|-----------------|-----------------|------
-3-3-----3-----3-|-----3-----------|-0-----2-----3---|---2-----0---2---|------
-----2-----2-----|-2-----2---2-----|-2-------2-----2-|-----2-----------|------
-----------------|---------------2-|---2-------2-----|-2-----2---2---0-|------
-----------------|-----------------|-----0-----------|-----------------|------
-----------------|-----------------|-----------------|-----------------|------
 Intro to verse 3:                                                 (2x)       

-0-----2-----3---|---2-----0---2---|-----------------|-----------------|------
-3-3-----3-----3-|-----3-----------|-0-----2-----3---|---2-----0---2---|------
-----2-----2-----|-2-----2---2-----|-2-------2-----2-|-----2-----------|------
-----------------|---------------2-|---2-------2-----|-2-----2---2---0-|------
-----------------|-----------------|-----0-----------|-----------------|------
-----------------|-----------------|-----------------|-----------------|------
 Verse 3:                                                          (2x)       

-----------------|-----------------|-2---2-2---2-2-2-|-3---3-3---3-3-3-|------
-3---3-3---3-3-3-|-2---2-2---2-2-2-|-3---3-3---3-3-3-|-3---3-3---3-3-3-|-3----
-4---4-4---4-4-4-|-2---2-2---2-2-2-|-2---2-2---2-2-2-|-0---0-0---0-0-0-|-4----
-4---4-4---4-4-4-|-2---2-2---2-2-2-|-0---0-0---0-0-0-|-0---0-0---0-0-0-|-4----
-2---2-2---2-2-2-|-0---0-0---0-0-0-|-----------------|-2---2-2---2-2-2-|-2----
-----------------|-----------------|-----------------|-3---3-3---3-3-3-|------
 Bridge:  bm              A                 D                 G    (2x)  bm     

-------------|-----------------|-----------------|----------------------------
-------------|-2---------------|-----------------|----------------------------
-------------|-2---------------|-----------------|----------------------------
-------------|-2---------------|-----------------|----------------------------
-------------|-0---------------|-----------------|----------------------------
-------------|-----------------|-----------------|----------------------------
               A                                                                 

-0-----2-----3---|---2-----0---2---|-----------------|-----------------|------
-3-3-----3-----3-|-----3-----------|-0-----2-----3---|---2-----0---2---|-3----
-----2-----2-----|-2-----2---2-----|-2-------2-----2-|-----2-----------|-2----
-----------------|---------------2-|---2-------2-----|-2-----2---2---0-|-0----
-----------------|-----------------|-----0-----------|-----------------|------
-----------------|-----------------|-----------------|-----------------|------
 Chorus:                                                           (8x)       

-------------|-----------------|----------------------------------------------
-----3-------|-3---------------|----------------------------------------------
-----2-------|-2---------------|----------------------------------------------
-----0-------|-0---------------|----------------------------------------------
-------------|-----------------|----------------------------------------------
-------------|-----------------|----------------------------------------------





Comments


Popular Bryan Adams tabs & chords
(I Wanna Be) Your Underwear Chords
Lets Make A Night To Remeber Chords
Lonely Nights Chords
Long Gone 1 Chords
Right Here Waiting For You 1 Chords
This Is Where I Belong 1 Chords
You Cant Take Me Chords
Heaven Tabs
Miss America Ukulele
Tonight We Have The Stars Ukulele


Song lyrics



↑ Back to top | Tablatures and chords are parodies/interpretations of the original songs. You may use it for private study, scholarship, research or language learning purposes only
© 2014 AZChords.com Contact us | Privacy policy | DMCA | Add/correct tabs | Request tabs | Top 50 tabs