» » »

Cuts Like A Knife Tabs (ver.3)

Artists:  A B C D E F G H I J K L M N O P Q R S T U V W X Y Z # 

Cuts Like A Knife Tabs (ver.3)

Bryan Adams
Rating:
4/5 (3 votes)

Hard to play? Try these video lessons and learn fast.
                (Intro)
Bryan Adams - Cuts Like A Knife Intro

Top, guitar 1 (distortion)
Bottom, guitar 2 (clean)

I've got the rest coming soon

e|-----------------|-----------------|-----------------|---------------|
B|-----------------|-----------------|-----------------|---------------|
G|-9-11-9h11---9-7-|-7h9--4-7--2h4-2-|-----------------|---------------|
D|-0----0--------0-|-----------0---0-|-----------------|---------------|
A|-----------------|-----------------|-----------------|---------------|
E|-----------------|-----------------|-----------------|---------------|
 |
e|-2-------2-------|-----------------|-2-------2-------|---------------|
B|-3-------3-------|---3----3--------|-3-------3-------|---3------3----|
G|-2-------2-------|---0----0--------|-2-------2-------|---0------0----|
D|-0-------0-------|---0----0--------|-0-------0-------|---0------2----|
A|-----------------|---x----x--0h2-0-|-----------------|---x--0-2-3----|
E|-----------------|---3----3--------|-----------------|---3-----------|


e|-----------------|-----------------|-----------------|--------------|
B|-----------------|-----------------|-----------------|---------3----|
G|-9-11-9h11---9-7-|-7h9--4-7--2h4-2-|-----------------|---------0----|
D|-0----0--------0-|-----------0---0-|-----------------|---------2----|
A|-----------------|-----------------|-----------------|---------3----|
E|-----------------|-----------------|-----------------|--------------|
 |
e|-2-------2-------|-----------------|-2-------2-------|--------------|
B|-3-------3-------|---3----3--------|-3-------3-------|---------3----|
G|-2-------2-------|---0----0--------|-2-------2-------|---------0----|
D|-0-------0-------|---0----0--------|-0-------0-------|---------2----|
A|-----------------|---x----x--0h2-0-|-----------------|-----0-2-3----|
E|-----------------|---3----3--------|-----------------|---3----------|
            
Hard to play? Try these video lessons and learn fast. | Correct




comments powered by Disqus
↑ Back to top | Tablatures and chords are parodies/interpretations of the original songs. You may use it for private study, scholarship, research or language learning purposes only