» » »

Bryan Adams, Cuts Like A Knife Bass tabs (ver.1)

Artists:  A B C D E F G H I J K L M N O P Q R S T U V W X Y Z # 

Cuts Like A Knife Bass tabs (ver.1)

Bryan Adams Tabs
 Rating:
4/5 (4 votes)
Cuts Like A Knife lessons Tabs too difficult? Try these video lessons and learn fast
1
                Song     :Cuts Like A Knife (Bass)
Artist   :Bryan Adams

                                          
G||-------------------|---------------------------|
D||-------------------|---------------------------|
A||-------------------|---------------------------|
D||-------------------|--0--0--0--0--0--0--0--0S--|

                                             
--------------------------------|---------------------------|
--------------------------------|---------------------------|
--------------------------------|---------------------------|
--5--5--5S--10--10--10--10--10--|--0--0--0--0--0--0--0--0S--|

                                             
--------------------------------|---------------------------|
--------------------------------|---------------------------|
--------------------------------|---------------------------|
--5--5--5S--10--10--10--10--10--|--0--0--0--0--0--0--0--0S--|

                                             
--------------------------------|---------------------------|
--------------------------------|---------------------------|
--------------------------------|---------------------------|
--5--5--5S--10--10--10--10--10--|--0--0--0--0--0--0--0--0S--|

                                                          
------------------------|----------------------|------------------------|
------------------------|----------------------|------------------------|
--------2S--5-----------|----------------------|----------3-------3--2--|
--5--7------------------|--0--------0--0-------|--5----5-------5--------|

        
------------------------|--------------------------|------------------------|
------------------------|--------------------------|------------------------|
------------------------|---------3----3---3S-7----|------------------------|
--0--------0-0--0-------|--5-----------------------|--0--------0-0--0-------|

 
------------------------|------------------------|--------------------------|
------------------------|------------------------|--------------------------|
----------3-------3--2--|-------5-----------5----|---------3----3---3S-7----|
--5----5-------5--------|--0---------0---0-------|--5-----------------------|

     
---------------------|------------------------|-------------------------|
---------------------|------------------------|-------------------------|
---------------------|---------3-------3---2--|-------------------------|
--0------0-----------|--5-----------5---------|--0------0--0---0--0--0--|

 
--------------------------|---------------------|------------------------|
--------------------------|---------------------|------------------------|
---------3----3---3S-7----|---------------------|---------3-------3---2--|
--5-----------------------|--0------0-----------|--5-----------5---------|


-------------------------|--------------------------|---------------------|
-------------------------|--------------------------|---------------------|
-------------------------|--------------------------|--0------0-----------|
--0------0--0---0--0--0--|--0--0--0--0--0--0--0--0--|---------------------|

                                 
---------------------|---------------------|-------------------|
---------------------|---------------------|-------------------|
--2------2-----------|--3------3-----------|-------------------|
---------------------|---------------------|--5----------------|

                                             
---------------------------|--------------------------------|
---------------------------|--------------------------------|
---------------------------|--------------------------------|
--0--0--0--0--0--0--0--0S--|--5--5--5S--10--10--10--10--10--|

                                             
---------------------------|--------------------------------|
---------------------------|--------------------------------|
---------------------------|--------------------------------|
--0--0--0--0--0--0--0--0S--|--5--5--5S--10--10--10--10--10--|

                                             
---------------------------|--------------------------------|
---------------------------|--------------------------------|
---------------------------|--------------------------------|
--0--0--0--0--0--0--0--0S--|--5--5--5S--10--10--10--10--10--|

                                                           
---------------------------|------------------------|----------------------|
---------------------------|------------------------|----------------------|
---------------------------|--------2S--5-----------|----------------------|
--0--0--0--0--0--0--0--0S--|--5--7------------------|--0--------0--0-------|


------------------------|------------------------|--------------------------|
------------------------|------------------------|--------------------------|
----------3-------3--2--|------------------------|---------3----3---3S-7----|
--5----5-------5--------|--0--------0-0--0-------|--5-----------------------|

 
------------------------|------------------------|-------------------------|
------------------------|------------------------|-------------------------|
------------------------|----------3-------3--2--|-------------------------|
--0--------0-0--0-------|--5----5-------5--------|--0--------0-0--0--0--0--|


--------------------------|-------------------|------------------------|
--------------------------|-------------------|------------------------|
--------------------------|--0----------------|--2------2----------0-2-|
--0--0--0--0--0--0--0--0--|-------------------|------------------------|

                                                          
-------------------|-------------------|---------------------------|
-------------------|-------------------|---------------------------|
--3----------------|-------------------|---------------------------|
-------------------|--5----------------|--0--0--0--0--0--0--0--0S--|

                                             
--------------------------------|---------------------------|
--------------------------------|---------------------------|
--------------------------------|---------------------------|
--5--5--5S--10--10--10--10--10--|--0--0--0--0--0--0--0--0S--|

                                             
--------------------------------|---------------------------|
--------------------------------|---------------------------|
--------------------------------|---------------------------|
--5--5--5S--10--10--10--10--10--|--0--0--0--0--0--0--0--0S--|

                                             
--------------------------------|---------------------------|
--------------------------------|---------------------------|
--------------------------------|---------------------------|
--5--5--5S--10--10--10--10--10--|--0--0--0--0--0--0--0--0S--|

                                             
--------------------------------|---------------------------|
--------------------------------|---------------------------|
--------------------------------|---------------------------|
--5--5--5S--10--10--10--10--10--|--0--0--0--0--0--0--0--0S--|

                                             
--------------------------------|---------------------------|
--------------------------------|---------------------------|
--------------------------------|---------------------------|
--5--5--5S--10--10--10--10--10--|--0--0--0--0--0--0--0--0S--|

                                             
-------------------------------|---------------------------|
-------------------------------|---------------------------|
------------------------12S----|---------------------------|
--5--5--5S--10--10--10---------|--0--0--0--0--0--0--0--0S--|

                                       
--------------------------|---------------------------|
--------------------------|---------------------------|
-----------3-----3--3--3--|---------------------------|
--5--7--5-----------------|--0--0--0--0--0--0--0--0S--|

                                             
--------------------------------|---------------------------|
--------------------------------|---------------------------|
--------------------------------|---------------------------|
--5--5--5S--10--10--10--10--10--|--0--0--0--0--0--0--0--0S--|

                                             
--------------------------------|---------------------------|
--------------------------------|---------------------------|
--------------------------------|---------------------------|
--5--5--5S--10--10--10--10--10--|--0--0--0--0--0--0--0--0S--|

                                            
--------------------------------|--------------------------|
--------------------------------|--------------------------|
--------------------------------|--5--5--5--5--5--5--5--5--|
--5--5--5S--10--10--10--10--10--|--------------------------|

             
-----------7--------------|---------------------|---------------------|
--------------------------|---------------------|---------------------|
--5--5--5-----5--5--3--2--|--0------0-----------|--2------2-----------|
--------------------------|---------------------|---------------------|

                                                    
---------------------|-------------------|-------------------|
---------------------|-------------------|-------------------|
--3------3-----------|-------------------|-------------------|
---------------------|--5----------------|-------------------|

                                                                            
-------------------|-------------------|-------------------|-------------------|
-------------------|-------------------|-------------------|-------------------|
-------------------|-------------------|-------------------|-------------------|
-------------------|-------------------|-------------------|-------------------|

                                                         
-------------------|-------------------|-------------------|
-------------------|-------------------|-------------------|
-------------------|-------------------|-------------------|
-------------------|-------------------|-------------------|

                                             
---------------------------|--------------------------------|
---------------------------|--------------------------------|
---------------------------|--------------------------------|
--0--0--0--0--0--0--0--0S--|--5--5--5S--10--10--10--10--10--|

                                             
---------------------------|--------------------------------|
---------------------------|--------------------------------|
---------------------------|--------------------------------|
--0--0--0--0--0--0--0--0S--|--5--5--5S--10--10--10--10--10--|

                                             
---------------------------|-------------------------------|
---------------------------|-------------------------------|
---------------------------|------------------------12S----|
--0--0--0--0--0--0--0--0S--|--5--5--5S--10--10--10---------|

                                             
---------------------------|--------------------------------|
---------------------------|--------------------------------|
---------------------------|--------------------------------|
--0--0--0--0--0--0--0--0S--|--5--5--5S--10--10--10--10--10--|

                                             
---------------------------|--------------------------------|
---------------------------|--------------------------------|
---------------------------|--------------------------------|
--0--0--0--0--0--0--0--0S--|--5--5--5S--10--10--10--10--10--|

                                             
---------------------------|-------------------------------|
---------------------------|-------------------------------|
---------------------------|------------------------12S----|
--0--0--0--0--0--0--0--0S--|--5--5--5S--10--10--10---------|

                                             
---------------------------|--------------------------------|
---------------------------|--------------------------------|
---------------------------|--------------------------------|
--0--0--0--0--0--0--0--0S--|--5--5--5S--10--10--10--10--10--|

                                             
---------------------------|--------------------------------|
---------------------------|--------------------------------|
---------------------------|--------------------------------|
--0--0--0--0--0--0--0--0S--|--5--5--5S--10--10--10--10--10--|

                                             
---------------------------|-------------------------------|
---------------------------|-------------------------------|
---------------------------|------------------------12S----|
--0--0--0--0--0--0--0--0S--|--5--5--5S--10--10--10---------|

                                             
---------------------------|--------------------------------|
---------------------------|--------------------------------|
---------------------------|--------------------------------|
--0--0--0--0--0--0--0--0S--|--5--5--5S--10--10--10--10--10--|

                                             
---------------------------|--------------------------------|
---------------------------|--------------------------------|
---------------------------|--------------------------------|
--0--0--0--0--0--0--0--0S--|--5--5--5S--10--10--10--10--10--|

                                             
---------------------------|-------------------------------|
---------------------------|-------------------------------|
---------------------------|------------------------12S----|
--0--0--0--0--0--0--0--0S--|--5--5--5S--10--10--10---------|

                                             
---------------------------|--------------------------------|
---------------------------|--------------------------------|
---------------------------|--------------------------------|
--0--0--0--0--0--0--0--0S--|--5--5--5S--10--10--10--10--10--|

                                             
---------------------------|--------------------------------|
---------------------------|--------------------------------|
---------------------------|--------------------------------|
--0--0--0--0--0--0--0--0S--|--5--5--5S--10--10--10--10--10--|

                                             
---------------------------|-------------------------------|
---------------------------|-------------------------------|
---------------------------|------------------------12S----|
--0--0--0--0--0--0--0--0S--|--5--5--5S--10--10--10---------|

                                             
---------------------------|--------------------------------|
---------------------------|--------------------------------|
---------------------------|--------------------------------|
--0--0--0--0--0--0--0--0S--|--5--5--5S--10--10--10--10--10--|

                                             
---------------------------|--------------------------------|
---------------------------|--------------------------------|
---------------------------|--------------------------------|
--0--0--0--0--0--0--0--0S--|--5--5--5S--10--10--10--10--10--|

                                             
---------------------------|-------------------------------|
---------------------------|-------------------------------|
---------------------------|------------------------12S----|
--0--0--0--0--0--0--0--0S--|--5--5--5S--10--10--10---------|

                                             
---------------------------|--------------------------------|
---------------------------|--------------------------------|
---------------------------|--------------------------------|
--0--0--0--0--0--0--0--0S--|--5--5--5S--10--10--10--10--10--|

                                             
---------------------------|--------------------------------|
---------------------------|--------------------------------|
---------------------------|--------------------------------|
--0--0--0--0--0--0--0--0S--|--5--5--5S--10--10--10--10--10--|

                                             
---------------------------|-------------------------------|
---------------------------|-------------------------------|
---------------------------|------------------------12S----|
--0--0--0--0--0--0--0--0S--|--5--5--5S--10--10--10---------|

                                              
---------------------------|--------------------------------||
---------------------------|--------------------------------||
---------------------------|--------------------------------||
--0--0--0--0--0--0--0--0S--|--5--5--5S--10--10--10--10--10--||
            
Submit corrections

comments powered by Disqus
↑ Back to top | Bryan Adams Bass for Cuts Like A Knife. Lyrics for acoustic guitar and electric guitar. 1 Tablatures and chords are parodies/interpretations of the original songs. You may use it for private study, scholarship, research or language learning purposes only