>
 >
Black Pearl

Black Pearl Guitar Tabs

Bryan Adams - Black Pearl chords, tabs, tablatures, lyrics

Guitar lessons | Add/correct | Request | Top 50 tabs Artists:  A B C D E F G H I J K L M N O P Q R S T U V W X Y Z 0-9

Black Pearl Guitar Tabs – Bryan Adams

CD, Sheet music, Poster

Do you like Black Pearl? Share with your friends now
ChordsTabsTabs v2Ukulele
BLACK PEARL
BRYAN ADAMS (BRYAN ADAMS AND ROBERT JOHN "MUTT" LANGE)

Intro: F#5
----

                                                          F#5
     E  Q    E  E  E  E  E     E  E  E  E  E  E  E  E     W                  
E||-----0----0--0--0-----0--|--L--0--------------------|-----------------|
B||-----2----2--2--2-----2--|--L--2--------------------|-----------------|
G||-------------------------|--------4--2--------------|-----------------|
D||-------------------------|--------------4-----2--4--|--L~-------------|
A||-------------------------|-----------------4--------|-----------------|
E||-------------------------|--------------------------|-----------------|


  Q    E  E  Q     E  E     H.            E  E     E  E  E  E  H          
-------------------------|----------------------|------------------------|
-------------------------|----------------------|------------------------|
----------2--4~----2-----|----------------2-----|--4--2------------------|
----------------------4--|--L~---------------4--|--------4--4--L~--------|
-------------------------|----------------------|------------------------|
-------------------------|----------------------|------------------------|


                                                     F#5
  E  E  E  E  E  E  E  E     E  E  E  E  Q    Q                             
--0-----0-----0--0--0-----|--0--0--0--0------------|-----|
--2-----2-----2--2--2-----|--2--2--2--2------------|-----|
--------------------------|------------------------|-----|
--------------------------|------------------------|-----|
--------------------------|------------------------|-----|
--------------------------|------------------------|-----|
                                              Deep   down…

----
Verse 1:
     F#5
Deep down in Mississippi
I found my sweet delta blue
She weaved a little southern spell on me
Made a little voodoo
----

              F#5                                              E5
              E  Q    E  E  E  Q       W  E  Q  E  E   E   E   
-----------|------------------------|------------------------|-------|
-----------|------------------------|------------------------|-------|
-----------|-----4----4--4--2--4----|--L~--------------------|-------|
-----------|------------------------|------------------------|-------|
-----------|------------------------|------------------------|-------|
-----------|------------------------|------------------------|-------|
   voodoo                                          She was born…

----
          E5
She was born the bright side of midnight
When her mama was seventeen
----

                               B5
  E  E  E  E  E  E   E   E     W                                      
----------------------------|--------------------|
----------------------------|--------------------|
-----4--4--2--4--2----------|--------------------|
---------------------4---4--|--L~----------------|
----------------------------|--------------------|
----------------------------|--------------------|
                 She was a     hot blooded…

----
          B5
She was a hot blooded, God fearin' gospel girl
The finest that I'd ever seen - oh

Chorus:
    C#5                D5
She's black coffee. Little bit o' cream
  A5                    E5
Sweet brown sugar, my midnight dream
F#5 F#5 A5 Ab5 F#5

        F#5
Black Pearl - yeah, my kinda girl
Just the kind of thing to rock my world
Black Pearl - oh my kinda girl
----

  F#5                         F#5
  Q      E  E  E  E  E  E     E  E  E  E  Q      Q     
---------------------------|--------------------------|
--2br----2--2--2--2--2-----|--2--2--2--2--2br---------|
---------------------------|--------------------------|
---------------------------|--------------------------|
---------------------------|--------------------------|
---------------------------|--------------------------|

----
Verse 2 (same chords as in verse 1):
F#5
Met her in a Dixie diner
Put on the southern hospitality
I can still smell her sweet molasses
Running all over me
   E5
We started rollin' like a river
Like a twister tearin' through the town
         B5
We we're tongue-tied, satisfied, southern fried
As she drove this ol' Dixie down

Repeat chorus:
    C#5                D5
She's black coffee. Little bit o' cream
  A5                    E5
Sweet brown sugar, my midnight dream
F#5 – F#5 – A5 – Ab5 – F#5
      F#5
Black Pearl - mmm, my kinda girl
Just the kind of thing to rock my world
Black Pearl – she’s my kinda girl

Middle 8:
B5
   Yeah, she's alright. Yeah, she's okay
C#5
   Well, makin' love all night
                D5
   Yeah, really made my day
----

  This is the end of the chorus - - - - - - - - - - |  Bridge - - - - >
  F#5                        F#5                       B5
  E  E  E  E  E  E  E  E     E  E  E  Q    E  E  E     Q.     E  H          
--------------------------|-------------------------|--------------------|
--2-----2--2--2--2-----2--|--L--2--2--2-------------|--------------------|
--------------------------|-------------------4--2--|--L-----------------|
--------------------------|-------------------------|------------4-------|
--------------------------|-------------------------|--------------------|
--------------------------|-------------------------|--------------------|
                                                              Yeah she’s


  B5                  B5            B5                    C#5
  Q  Q  E  E  E  E                  Q   Q  E  E  E  E         
-----------5--5--7--|-------------|---------------------|-----------------|
-----------5--5--7--|-------------|---------------------|-----------------|
--------------------|-------------|---------4--4--4--7--|-----------------|
--------------------|-------------|---------4--4--4--7--|-----------------|
--------------------|-------------|---------------------|-----------------|
--------------------|-------------|---------------------|-----------------|
    alright            Yeah she’s     okay                Well, makin love


  C#5                      C#5                      C#5       D5
  Q    Q    E  E  E  E     Q    Q    E  E  E  E     Q    Q    Q    E  E   
---------------2--2--4--|---------------2--2--4--|-----------------------|
---------------2--2--4--|---------------2--2--4--|-----------------------|
------------------------|------------------------|--------------------2--|
------------------------|------------------------|-----------------------|
------------------------|------------------------|-----------------------|
------------------------|------------------------|-----------------------|
    All night                 Yeah      real- ly    made my   day

----
Solo: F#5 (8 bars):
----

  F#5                     F#5                      F#5
  Q    E  E  E  E  Q      E  E  E  E  E  E  Q      Q    E  E  E  E  E  E   
-----------------------|------------------------|----------2--2--2-----5--|
-----------------------|------------------------|-------2--2--2--2--2-----|
--L----------2---------|--------2-----2-----4~--|-------------------------|
-------4--4-----4------|--4--4-----4-----4------|-------------------------|
-----------------------|------------------------|-------------------------|
-----------------------|------------------------|-------------------------|


  F#5                        F#5
  E  E  E  E  E  E  E  E     Q      E  E  E  E  E  E   
-----2--2--1-----2--2--5--|--6br----------------------|
--------2--1-----2--------|---------------7--6--7-----|
--------------------------|---------6--6-----------6--|
--------------------------|---------------------------|
--------------------------|---------------------------|
--------------------------|---------------------------|


  F#5                           F#5                   F#5
  E  E   E  Q       E  E  E     Q    Q.     Q.        H        H         
--9--7-----------------7-----|--7----7------7------|--7-----------------|
--------10--7br----10--------|---------------------|-----------7--------|
-----------------------------|---------------------|--------------------|
-----------------------------|---------------------|--------------------|
-----------------------------|---------------------|--------------------|
-----------------------------|---------------------|--------------------|

----
Continue with verse:
          E5
She was born the bright side of midnight
When her mama was seventeen
          B5
She was a hot blooded, God fearin' gospel girl
The finest that I'd ever seen

Repeat chorus:
She's black coffee. Little bit o' cream
Sweet brown sugar, my midnight dream
Black Pearl - mmm, my kinda girl
Just the kind of thing to rock my world
Black Pearl – ooh, my kinda girl

Repeat end-part of chorus (2x until fade):
Black Pearl - ooh, my kinda girl
Just the kind of thing to rock my world
Black Pearl – ooh, my kinda girl





Comments


Popular Bryan Adams tabs & chords
Heaven Bass Tabs
Please Forgive Me Bass Tabs
Summer Of 69 Bass Tabs
There Will Never Be Another Tonight Chords
(Everything I Do) I Do It For You 1 Tabs
Nothing Ive Ever Known Intro Tabs
Run To You 5 Tabs
All I Want Is You Ukulele
East Side Story Ukulele
Rebel Ukulele


Song lyrics



↑ Back to top | Tablatures and chords are parodies/interpretations of the original songs. You may use it for private study, scholarship, research or language learning purposes only
© 2014 AZChords.com Contact us | Privacy policy | DMCA | Add/correct tabs | Request tabs | Top 50 tabs