» » »

The Lazy Song Tabs (ver.1)

Artists:  A B C D E F G H I J K L M N O P Q R S T U V W X Y Z # 

The Lazy Song Tabs (ver.1)

Bruno Mars
Rating:
0/5 (0 votes)

Tabs too difficult? Try these video lessons and learn fast.
                This is to Bill Casey's rock remix of Bruno Mar's song "The Lazy Song". The cover can be 


Guitar 1 (G1): Lead
Guitar 2 (G2): Rhythm

INTRO/CHORUS:

G1
E-------------------------------------|
B-------------------------------------|
G-------------------------------------|
D--11-13-13-13-13-11----11-13---------|
A--------------------14-------14-11~--|
E-------------------------------------|
(cont.)
E----------------------------|
B----------------------------|
G----------------------------|
D--13-13-13-13-11----11------|
A-----------------14----11~--|
E----------------------------|
(cont.)
E----------------------------------|
B----------------------------------|
G-----------11-11----11h13-11-13~--|
D-----11h13-------13---------------|
A--14------------------------------|
E----------------------------------|
(cont.)
E------------------------------|
B------------------------------|
G-----11h13-13-11--------------|
D--13-------------13-11-13-----|
A--------------------------14--|
E------------------------------|
(cont.)
E-------------------------------------|
B-------------------------------------|
G-------------------------------------|
D--11-13-13-13-13-11----11-13---------|
A--------------------14-------14-11~--|
E-------------------------------------|

G2
E---------------------------------------|
B-------------11---11----9---9---9---9--|
G----8---8--xx11-xx11--xx9-xx9-xx9-xx9--| 3x
D--xxx-xxx--xx11-xx11--xx9-xx9-xx9-xx9--|
A--xx9-xx9--xx-9-xx-9--xx7-xx7-xx7-xx7--|
E--xx7-xx7------------------------------|
(cont.)
E-------------------------------------|
B-------------8---8----9---9---9---9--|
G----8---8--xx8-xx8--xx9-xx9-xx9-xx9--|
D--xxx-xxx--xx8-xx8--xx9-xx9-xx9-xx9--|
A--xx9-xx9--xx6-xx6--xx7-xx7-xx7-xx7--|
E--xx7-xx7----------------------------|
VERSE:

G1
E--------------------------------------------------|
B--o-----------------------------------------------|
G--------------------------------------------------|
D----13-13-13-13-13-13-13-13-11-11-11-11-11h13r11--|
A--o-----------------------------------------------|
E--------------------------------------------------|
(cont.)
E------------------------------------------------|
B------------------------------------------------|
G------------------------------------------------|
D--11-11-11-11-11-11-11-11-11-11-11-11-11h13r11--|
A------------------------------------------------|
E------------------------------------------------|
(cont.)
E---------------------------------|
B------------------------------o--|
G-----11-11----11h13-13-11--------| 2x
D--13-------13-------------9~~----|
A------------------------------o--|
E---------------------------------|

G2
E---------------------------------------|
B-------------11---11----9---9---9---9--|
G----8---8--xx11-xx11--xx9-xx9-xx9-xx9--|
D--xxx-xxx--xx11-xx11--xx9-xx9-xx9-xx9--|
A--xx9-xx9--xx-9-xx-9--xx7-xx7-xx7-xx7--|
E--xx7-xx7------------------------------|
(cont.)
E-------------------------------------|
B-------------8---8----9---9---9---9--|
G----8---8--xx8-xx8--xx9-xx9-xx9-xx9--|
D--xxx-xxx--xx8-xx8--xx9-xx9-xx9-xx9--|
A--xx9-xx9--xx6-xx6--xx7-xx7-xx7-xx7--|
E--xx7-xx7----------------------------|
(cont.)
E---------------------------------------|
B-------------11---11----9---9---9---9--|
G----8---8--xx11-xx11--xx9-xx9-xx9-xx9--| 2x
D--xxx-xxx--xx11-xx11--xx9-xx9-xx9-xx9--|
A--xx9-xx9--xx-9-xx-9--xx7-xx7-xx7-xx7--|
E--xx7-xx7------------------------------|


PRE-CHORUS:

G1
E------------------------------------------------------|
B------------------------------------------------------|
G------------------------------------------------------|
D--9--11-11-11-11-11-11-11-11-13-13-13-13-13-13-13-13--|
A------------------------------------------------------|
E------------------------------------------------------|
(cont.)
E-------------------------------|
B-------------------------------|
G--11-11-11-11-11-11-11-11-13~--|
D-------------------------------|
A-------------------------------|
E-------------------------------|

G2
E----------------------------------|
B----------------------------------|
G--66666666-88888888-99999999-11~--|
D--66666666-88888888-99999999-11~--|
A--44444444-66666666-77777777--9~--|
E----------------------------------|

(REPEAT CHORUS) *Listen for the variation at the very end*

BREAKDOWN (right after chorus, starting with “Nothing at all...”):

G1
E----------------------------------------------------|
B----------------------------------------------------|
G---------------11/13-11~--11/13-11------------------|
D--13-13-11-9~-----------------------13-13h14-13-9~--|
A----------------------------------------------------|
E----------------------------------------------------|
(cont.)
E---------------------------------------------------|
B---------------------------------------------------|
G--9-8--------11/13-11~--11/13-11-------------------|
D------11-9~-----------------------13-13h14-13-9~~--|
A---------------------------------------------------|
E---------------------------------------------------|

G2
E---------------------------------------|
B-------------11---11----9---9---9---9--|
G----8---8--xx11-xx11--xx9-xx9-xx9-xx9--| 2x
D--xxx-xxx--xx11-xx11--xx9-xx9-xx9-xx9--|
A--xx9-xx9--xx-9-xx-9--xx7-xx7-xx7-xx7--|
E--xx7-xx7------------------------------|

(REPEAT VERSE)

(REPEAT PRE-CHORUS & CHORUS)


INTERLUDE:

G1
E-----------------------------------------|
B-----------------------------------------|
G--o-11-11-11-----------11-11-11----------|
D-------------9-11---------------9-11-----|
A--o---------------9~-----------------9~--|
E-----------------------------------------|
(cont.)
E-----------------------------------|
B-----------------------------------|
G--------------------------------o--| 2x
D--11-13-11-13-11-13-11-11-9-9~~----|
A--------------------------------o--|
E-----------------------------------|

G2
E----------------------------------------------------------|
B----------------------------------------------------------|
G--o-66666666-1111111111111111-----------1111111111111111--|
D----66666666-1111111111111111--99999999-1111111111111111--|
A--o-44444444--9-9-9-9-9-9-9-9--99999999--9-9-9-9-9-9-9-9--|
E-------------------------------77777777-------------------|
(cont.)
E----------------------------------------|
B----------------------------------------|
G--99999999-88888888------------------o--| 2x
D--99999999-88888888-9999999999999999----|
A--77777777-66666666-9999999999999999-o--|
E--------------------7777777777777777----|


CHORUS (changed up a bit):

G1
E--------------------------------------|
B--------------------------------------|
G--------------------------11~----11~--|
D--11-13-13-13-13-11----13-----13------|
A--------------------14----------------|
E--------------------------------------|
(cont.)
E-----------------------------|
B-----------------------------|
G--------------11----11-13~~--|
D--13-13-13-13----13----------|
A-----------------------------|
E-----------------------------|
(cont.)
E------------------------------------------------------------|
B----------------------------------11-12-11------------------|
G-----------11-11-----11h13-11-13-----------13-11------------|
D-----11h13-------13------------------------------13-11------|
A--14---------------------------------------------------14~--|
E------------------------------------------------------------|
(cont.)
E-------------------------------------|
B-------------------------------------|
G-------------------------------------|
D--11-13-13-13-13-11----11-13---------|
A--------------------14-------14-11~--|
E-------------------------------------|




G2
E---------------------------------------|
B-------------11---11----9---9---9---9--|
G----8---8--xx11-xx11--xx9-xx9-xx9-xx9--| 3x
D--xxx-xxx--xx11-xx11--xx9-xx9-xx9-xx9--|
A--xx9-xx9--xx-9-xx-9--xx7-xx7-xx7-xx7--|
E--xx7-xx7------------------------------|
(cont.)
E-------------------------------------|
B-------------8---8----9---9---9---9--|
G----8---8--xx8-xx8--xx9-xx9-xx9-xx9--|
D--xxx-xxx--xx8-xx8--xx9-xx9-xx9-xx9--|
A--xx9-xx9--xx6-xx6--xx7-xx7-xx7-xx7--|
E--xx7-xx7----------------------------|


(REPEAT BREAKDOWN 2x *but listen for the variation*)

And that’s it! :D
            
Tabs too difficult? Try these video lessons and learn fast.


comments powered by Disqus
↑ Back to top | Tablatures and chords are parodies/interpretations of the original songs. You may use it for private study, scholarship, research or language learning purposes only