>
 >
I Wont Give Up

I Wont Give Up Guitar Tabs

Bruno Mars - I Wont Give Up chords, tabs, tablatures, lyrics

Guitar lessons | Add/correct | Request | Top 50 tabs Artists:  A B C D E F G H I J K L M N O P Q R S T U V W X Y Z 0-9

I Wont Give Up Guitar Tabs – Bruno Mars

CD, Sheet music, Poster

Do you like I Wont Give Up? Share with your friends now
Tabs
-----------------------------------------------------------------------------
                        I WON'T GIVE UP - Jason Mraz
-----------------------------------------------------------------------------


all right, just meddled up <3 )

Based on his performance here:


Tuning: Drop D, CAPO 2nd Fret, All frets relative to Capo


Chords

   G         D         Bm         A       Asus       Em
|--x--|   |--2--|    |--2--|   |--0--|   |--0--|   |--0--|
|-3or0|   |--3--|    |--3--|   |--2--|   |--3--|   |--0--|
|--0--|   |--2--|    |--4--|   |--2--|   |--2--|   |--0--|
|--4--|   |--0--|    |--4--|   |--2--|   |--2--|   |--2--|
|--5--|   |--0--|    |--2--|   |--0--|   |--0--|   |--2--|
|--5--|   |--x--|    |--x--|   |--x--|   |--x--|   |--2--|

  
   C         C#       A/D       F#
|--0--|   |--x--|   |--2--|   |--x--|
|--1--|   |--x--|   |--3--|   |--x--|
|--0--|   |--6--|   |--2--|   |-0h2-|
|--2--|   |--3--|   |--2--|   |--0--|
|--3--|   |--4--|   |--0--|   |--0--|
|--x--|   |--x--|   |--x--|   |--4--|



Intro and Verse:

e|----------------------------------------------------------------------|
B|----------------------------------------------------------------------|
G|-------------------4--4----2--2-----2--2------------------------------|
D|-0--0-0---2--4-----5--5----4--4-----4--4------------------------------| x3
A|----------------------------------------------------------------------|
D|-------------------0-------0-----0------------------------------------|

  When I look into your eyes..

e|----------------------------------------------------------------------|
B|------------3--3----3--2----------------------------------------------|
G|------------2--2----2--2----------------------------------------------|
D|-4--2--0----2--2----2--2----------------------------------------------| 
A|------------0-----0----0----------------------------------------------|
D|----------------------------------------------------------------------|
  
  ..how old is your soul


Chorus:

                 G       D
               
I  won't  give  up  on  us

                Bm          A

Even  if  the  skies  get  rough

                  G         D

I'm  giving  you  all  my  love

                      A - Asus - A

I'm  still  looking  up




intro again for verse


And when you're needing your space

To do some navigating

I'll be here patiently waiting

To see what you find


repeat chorus:
                    G       D

'Cause even the stars they burn

             Bm          A

Some even fall to the earth

              G         D

We've got a lot to learn

                     A - Asus - A

God  knows  we're  worth  it
 
                     G

No,  I  won't  give  up



Bridge:

          Em

I  don't  wanna  be  someone  who  walks  away  so  easily

                                                       A/D

I'm  here  to  stay  and  make  the  difference  that  I  can  make

   Em

Our  differences  they  do  a  lot  to  teach  us  how  to  use

                                                  A/D

The  tools  and  gifts  we  got  yeah,  we  got  a  lot  at  stake

              C

And  in  the  end,  you're  still  my  friend  at  least  we  did  intend

                                                         C#

For  us  to  work  we  didn't  break,  we  didn't  burn

                                                                   C

We  had  to  learn  how  to  bend  without  the  world  caving  in

                                   C#                    (break)

I  had  to  learn  what  I've  got,  and  what  I'm  not

           D

And who I am


             G       D

I won't give up on us

             Bm          A

Even if the skies get rough

               G         D

I'm giving you all my love

                  A - Asus - A

I'm still looking up

               G

Still looking up.


             G       D


No, I won't give up on us (no I'm not giving up)

             Bm          A

God knows I'm tough enough (I am tough, I am loved)

               G         D

We've got a lot to learn (we're alive, we are loved)  

                  A - Asus - A

And we're, and we're worth it (and we're worth it)




outro:

             G        D

I won't give up on us

             Bm          A            

Even if the skies get rough


               G         D

I'm giving you all my love

                    A

I'm still looking up






intro
verse (played as intro)
chorus
verse
chorus
bridge
chorus
chorus
outro/chorus (quieter)


That's all. Please don't forget to rate if you have the time.
Any comments, feedbacks, suggestions, would be greatly appreciated.
Remember to use the chords that I posted above at the beginning.
Thanks for viewing. Happy playing!



************************************

| /   slide up
| \   slide down
| h   hammer-on
| p   pull-off
| ~   vibrato
| +   harmonic
| x   Mute note
| b   Bend
| pb  Pre-bend
| br  Bend release
| pbr Pre-bend release
| brb Bend release bend

************************************





Comments


Popular Bruno Mars tabs & chords
Grenade 3 Bass Tabs
If I Knew 1 Chords
Just The Way You Are 9 Chords
Marry You 6 Chords
Somewhere In Brooklyn 5 Chords
When I Was Your Man Chords
Who Is 3 Chords
Young Girls 1 Chords
Talking To The Moon Tabs
The Lazy Song 5 Tabs


Song lyrics



↑ Back to top | Tablatures and chords are parodies/interpretations of the original songs. You may use it for private study, scholarship, research or language learning purposes only
© 2014 AZChords.com Contact us | Privacy policy | DMCA | Add/correct tabs | Request tabs | Top 50 tabs