» » »

Bruno Mars, It Will Rain Tabs (ver.1)

Artists:  A B C D E F G H I J K L M N O P Q R S T U V W X Y Z # 

It Will Rain Tabs (ver.1)

Bruno Mars Tabs
Rating:
0/5 (0 votes)
It Will Rain lessons Tabs too difficult? Try these video lessons and learn fast
                hey guys....this is my first tab...hope you like it :))
this is for all of my friends in my school....


IT WILL RAIN
-BRUNO MARS


Standard Tuning

verse:
       D            F#           D           F#
e|-----2------------x------------2-----------x---------------|
B|-----3------------7------------3-----------7---------------|
G|-----2------------6------------2-----------6---------------|
D|------------------4------------------------4---------------|
A|------------------x------------------------x---------------|
E|------------------x------------------------x---------------|
       Em            Bm          Em          A
e|-------------------2---------------------------------------|
B|-------------------3-----------------------2---------------|
G|-------------------4-----------------------2---------------|
D|-----2-------------4-----------2-----------2---------------|
A|-----2-------------2-----------2---------------------------|
E|-------------------2---------------------------------------|


Chorus:

       G             A         F#            Bm

e|-----3-----------------------x-------------2---------------|
B|-----3-------------2---------7-------------3---------------|
G|-------------------2---------6-------------4---------------|
D|-------------------2---------4-------------4---------------|  x 3
A|-----2-----------------------x-------------2---------------|
E|-----3-----------------------x-------------2---------------|
add an A chord after for a little flavor :))
       Em    A    (last part of the chorus)
e|----------------|
B|-----------2----|
G|-----------2----|
D|---2-------2----|
A|---2------------|
E|----------------|


Bridge:

       G          F#

e|-----3----------x------|
B|-----3----------7------|
G|----------------6------|
D|----------------4------|  x 2
A|-----2----------x------| 
E|-----3----------x------|
  
     Em         A
e|-----------------------|
B|--------------2--------|
G|--------------2--------|
D|----2---------2--------|
A|----2------------------|
E|-----------------------|



Thank you for looking at my tab....please rate :))
            
Submit corrections

comments powered by Disqus
↑ Back to top | Bruno Mars Tabs for It Will Rain. Lyrics for acoustic guitar and electric guitar. Tablatures and chords are parodies/interpretations of the original songs. You may use it for private study, scholarship, research or language learning purposes only