» » »

Lintik Tabs (ver.1)

Artists:  A B C D E F G H I J K L M N O P Q R S T U V W X Y Z # 

Lintik Tabs (ver.1)

Brownman Revival
Rating:
0/5 (0 votes)

Hard to play? Try these video lessons and learn fast.
                Song : Lintik
Artist : Brownman Revival
Advice : Pakinggan ninyo muna ang adlib ng lintik bago gawin ito. Hehehe =)
chords : Bm, A, E, only
I
‘Di ko man lang napansin ang iyong pagdating
daig mo pa ang isang bagyong namuo sa malayo
ihip ng hangin biglang nag-iba
sinundan pa ng kulog at kidlat
sa biglang buhos ng iyo sa akin
ako’y napakanta

[chorus]
Lintik na pag-ibig
parang kidlat
puso kong tahimik na naghihintay
bigla mong ginulat
     (2X)
II
Mga halik mo’t mga lambing, inuulan mo sa akin
binabaha, binabagyo na ako ng iyong mga cariño
nananaginip ba ako nang gising
ay, tinamaan ng magaling
nadali mo ang puso ko ng iyong kidlat
     (repeat chorus)

(Solo)
		    Bm     E	            A
e|----9-10-12--10--9----------------------------------------|
B|----------------------10-10/12-10h12-10-------------------|
G|-----------------------------------------------11-9h11-9--|
D|----------------------------------------------------------|
A|----------------------------------------------------------|
E|----------------------------------------------------------|
 	    Bm   E	mabilis dito ng konti	     A
e|-----------------|----------12----------------------12----------14-12-----------------|
B|--12--14--12-|-12h14------14-14-12-12h14-------14-12----------------------------------|
G|----------------|---------------------------------------------------------------------|
D|----------------|---------------------------------------------------------------------|
A|----------------|---------------------------------------------------------------------|
E|----------------|---------------------------------------------------------------------|
     pati dito tiyempohan na lang ninyo ang bilis
e|-------------------------------------------------------------------------------|
B|--12h14-14-10h12-12-8h10-10-5h7-7-3h5-5-2h4-4----------------------------------|
G|----------------------------------------------------------------4h6-6-2h4-4-2--|
D|-------------------------------------------------------------------------------|
A|-------------------------------------------------------------------------------|
E|-------------------------------------------------------------------------------|
Bm      E         A
e|--------------------------------|
B|--------------------------------|
G|-4/6-6-4-6-6-7-6-4-6-7-6-7-7/9--|
D|--------------------------------|
A|--------------------------------|
E|--------------------------------|
Bm		    E			    A                     bilisan nyo dito ok :D
e|--------------------------------------------------|----------------------------------------------14-12-------------17--|
B|---14-12h14p12------------------------------ |--------------------------------------------------------14-12------------|
G|---------------------11-9h11p9----------------|------------------------------11-9--------------------------------------|
D|-------------------------------------11-9-9h11|---------7-9-11-9------------------11-9---------------------------------|
A|--------------------------------------------------|-9h11---------------11-9--------------------------------------------|
E|--------------------------------------------------|--------------------------------------------------------------------|

EEEEENNNNNNDDDDDDDDDjjjjjjjjjOOOOOOOOyyyyyyyyyyy
Good luck!!!!!!
Sana magustuhan ninyo
I rate nyo po!
            
Hard to play? Try these video lessons and learn fast. | Correct




comments powered by Disqus
↑ Back to top | Tablatures and chords are parodies/interpretations of the original songs. You may use it for private study, scholarship, research or language learning purposes only