>
 >
Woman

Woman Guitar Tabs

Brother Cane - Woman chords, tabs, tablatures, lyrics

Guitar lessons | Add/correct | Request | Top 50 tabs Artists:  A B C D E F G H I J K L M N O P Q R S T U V W X Y Z 0-9

Woman Guitar Tabs – Brother Cane

CD, Sheet music, Poster

Do you like Woman? Share with your friends now
Tabs
**Drop Tune Half Step**
The appregiated parts played with accoustic.  The solo is partly
improvised since I'm not lightning quick.

~    =  vibrato (shake note as if with whammy bar)
+    =  bend for appropiate pitchshifts
h    =  hammer on following note then release back to original
/    =  slide fret fingers to next  note

Intro (Also Guitar Riff 1)
     Em         F#m        C         G       
|-----0--------------------------------------------------|
|-------0--------3------3----------0---------------------|
|--------------2----------0------0-----------------------|
|---------------------0--------0-------------------------|
|---2--------0------3--------2---------------------------|
|-0--------2---------------------------------------------|
						Repeat once
Verse 1
     Em         F#m      C          G
|-----0--------------------------------------------------|
|-------0--------3------3----------0---------------------|
|--------------2----------0------0-----------------------|
|---------------------0--------0-------------------------|
|---2--------0------3--------2---------------------------|
|-0--------2---------------------------------------------|
I used. .	     Now I don't. . .

     Em         F#m     C          G
|-----0--------------------------------------------------|
|-------0--------3------3----------0---------------------|
|--------------2----------0------0-----------------------|
|---------------------0--------0-------------------------|
|---2--------0------3--------2---------------------------|
|-0--------2---------------------------------------------|
Having. . 	     Or having. .

     Em         F#m     C          G
|-----0--------------------------------------------------|
|-------0--------3------3----------0---------------------|
|--------------2----------0------0-----------------------|
|---------------------0--------0-------------------------|
|---2--------0------3--------2---------------------------|
|-0--------2---------------------------------------------|
				     
     Em         F#m     C          G       
|-----0--------------------------------------------------|
|-------0--------3------3----------0---------------------|
|--------------2----------0------0-----------------------|
|---------------------0--------0-------------------------|
|---2--------0------3--------2---------------------------|
|-0--------2---------------------------------------------|
Shoot  		    Getting lost

     Em         F#m     C          C#     D
|-----0-----------------------------------1--------------|
|-------0--------3------3----------2--------3------------|
|--------------2----------0------2------2----------------|
|---------------------0--------2------0------------------|
|---2--------0------3--------4---------------------------|
|-0--------2---------------------------------------------|
 I'd like. .	    Can't see. .

      Bb      A                     D       Bb
|-----------------------------------1----------------|
|--------------2------3-----5---------3--------------|
|-----3-------------2-----2-------2----------3-------|
|---3---3----2----2-----2-------0----------3---3-----|
|-1--------0-----------------------------1-----------|
|----------------------------------------------------|
 My baby			Do you. . .

    A                   C#         A    B
|----------------------------------------------------|
|-----2-----3-----5------5---------2-----------------|
|---------2-----2----------6---------2--4------------|
|---2---2-----2--------6---------2------4------------|
|-0------------------4---------0--------2------------|
|----------------------------------------------------|
		    Oh, my baby

Between Verses
     Em         F#m     C          G
|-----0--------------------------------------------------|
|-------0--------3------3----------0---------------------|
|--------------2----------0------0-----------------------|
|---------------------0--------0-------------------------|
|---2--------0------3--------2---------------------------|
|-0--------2---------------------------------------------|
						Repeat once

Verse 2
     Em         F#m     C          G
|-----0--------------------------------------------------|
|-------0--------3------3----------0---------------------|
|--------------2----------0------0-----------------------|
|---------------------0--------0-------------------------|
|---2--------0------3--------2---------------------------|
|-0--------2---------------------------------------------|
Searching. .        And the. .

     Em         F#m     C          G
|-----0--------------------------------------------------|
|-------0--------3------3----------0---------------------|
|--------------2----------0------0-----------------------|
|---------------------0--------0-------------------------|
|---2--------0------3--------2---------------------------|
|-0--------2---------------------------------------------|
I'm in control. .   Don't know

     Em         F#m     C          G
|-----0--------------------------------------------------|
|-------0--------3------3----------0---------------------|
|--------------2----------0------0-----------------------|
|---------------------0--------0-------------------------|
|---2--------0------3--------2---------------------------|
|-0--------2---------------------------------------------|
						Repeat

2nd Guitar during Verse 2's interlude
						  + ~
|-----3-5/7---3h2h3h2---2-3------------------------------|
|-3-5-----------------------3-3/5--5-3-------------------|
|--------------------------------------4--3h2h0---2------|
|-----------------------------------------------2---2----|
|--------------------------------------------------------|
|--------------------------------------------------------|

     Em         F#m     C          G
|-----0--------------------------------------------------|
|-------0--------3------3----------0---------------------|
|--------------2----------0------0-----------------------|
|---------------------0--------0-------------------------|
|---2--------0------3--------2---------------------------|
|-0--------2---------------------------------------------|
 One step. . .      But take. . 

     Em         F#m     C          C#     D
|-----0-----------------------------------1--------------|
|-------0--------3------3----------2--------3------------|
|--------------2----------0------2------2----------------|
|---------------------0--------2------0------------------|
|---2--------0------3--------4---------------------------|
|-0--------2---------------------------------------------|
 I get . . 	    Always. .

     Bb       A                     D        Bb
|-----------------------------------1----------------|
|--------------2------3-----5---------3--------------|
|-----3-------------2-----2-------2----------3-------|
|---3---3----2----2-----2-------0----------3---3-----|
|-1--------0-----------------------------1-----------|
|----------------------------------------------------|
 My baby			Do you. . .

    A                     C#       A    B        C#       A    B
|-----------------------------------------------------------------|
|-----2-----3-----5------5---------2-------------5---------2------|
|---------2-----2----------6---------2--4----------6---------2-4--|
|---2---2-----2--------6---------2------4------6---------2-----4--|
|-0------------------4---------0--------2----4---------0-------2--|
|-----------------------------------------------------------------|
		Oh, my baby

|--------------------------------------------------------|
|--------------------------------------------------------|
|-4--4--4-4--4-4--4-4--4-4--4-4--------------------------|
|-4--4--4-4--4-4--4-4--4-4--4-4--------------------------|
|-2--2--2-2--2-2--2-2--2-2--2-2--------------------------|
|-------------------------------12/0---------------------|

Guitar Riff 2
                  D       C#       A    
  p.m.---
|--------------------------------------------------------|
|--------------------------------------------------------|
|----------9/---7---7---6---6----------------------------|
|----------9/---7---7---6---6---7-7-7-7------------------|
|----------7/---5---5---4---4---7-7-7-7------------------|
|-0-0-0-0-----0-------0---------5-5-5-5--0-3-2-0---------|

             D       C#      A         Fm
  p.m.---
|--------------------------------------------------------|
|--------------------------------------------------------|
|---9-9/---7---7---6---6---------------------------------|
|---9-9/---7---7---6---6---7-7-7-7---3-3-3---------------|
|---7-7/---5---5---4---4---7-7-7-7---3-3-3---------------|
|-0------0-------0---------5-5-5-5-0-1-1-1-0-------------|

                  D       C#       A
 p.m.---
|--------------------------------------------------------|
|--------------------------------------------------------|
|----------9/---7---7---6---6----------------------------|
|----------9/---7---7---6---6---7-7-7-7------------------|
|----------7/---5---5---4---4---7-7-7-7------------------|
|-0-0-0-0-----0-------0---------5-5-5-5--0-3-2-0---------|

             D       C#      A         Fm
  p.m.---
|--------------------------------------------------------|
|--------------------------------------------------------|
|---9-9/---7---7---6---6---------------------------------|
|---9-9/---7---7---6---6---7-7-7-7---3-3-3---------------|
|---7-7/---5---5---4---4---7-7-7-7---3-3-3---------------|
|-0------0-------0---------5-5-5-5-0-1-1-1-0-------------|

                  D       C#       A
 p.m.---
|--------------------------------------------------------|
|--------------------------------------------------------|
|----------9/---7---7---6---6----------------------------|
|----------9/---7---7---6---6---7-7-7-7------------------|
|----------7/---5---5---4---4---7-7-7-7------------------|
|-0-0-0-0-----0-------0---------5-5-5-5--0-3-2-0---------|
  Searching my. .	   And the. .

             D       C#      A         Fm
  p.m.---
|--------------------------------------------------------|
|--------------------------------------------------------|
|---9-9/---7---7---6---6---------------------------------|
|---9-9/---7---7---6---6---7-7-7-7---3-3-3---------------|
|---7-7/---5---5---4---4---7-7-7-7---3-3-3---------------|
|-0------0-------0---------5-5-5-5-0-1-1-1-0-------------|
  I'm in. .           Don't know. .

             D       C#      A         Fm
  p.m.---
|--------------------------------------------------------|
|--------------------------------------------------------|
|---9-9/---7---7---6---6---------------------------------|
|---9-9/---7---7---6---6---7-7-7-7---3-3-3---------------|
|---7-7/---5---5---4---4---7-7-7-7---3-3-3---------------|
|-0------0-------0---------5-5-5-5-0-1-1-1-0-------------|

                  D       C#       A
 p.m.---
|--------------------------------------------------------|
|--------------------------------------------------------|
|----------9/---7---7---6---6----------------------------|
|----------9/---7---7---6---6---7-7-7-7------------------|
|----------7/---5---5---4---4---7-7-7-7------------------|
|-0-0-0-0-----0-------0---------5-5-5-5--0-3-2-0---------|
  One step . .             But take. .

             D       C#      A         Fm
  p.m.---
|--------------------------------------------------------|
|--------------------------------------------------------|
|---9-9/---7---7---6---6---------------------------------|
|---9-9/---7---7---6---6---7-7-7-7---3-3-3---------------|
|---7-7/---5---5---4---4---7-7-7-7---3-3-3---------------|
|-0------0-------0---------5-5-5-5-0-1-1-1-0-------------|
  I get. . 	     Always fading. .

                  D       C#       A
 p.m.---
|--------------------------------------------------------|
|--------------------------------------------------------|
|----------9/---7---7---6---6----------------------------|
|----------9/---7---7---6---6---7-7-7-7------------------|
|----------7/---5---5---4---4---7-7-7-7------------------|
|-0-0-0-0-----0-------0---------5-5-5-5--0-3-2-0---------|
			  It's always fading. .

             D       C#       C         D
  p.m.---
|--------------------------------------------------------|
|--------------------------------------------------------|
|---9-9/---7---7---6---6---5-5-5-5---7-7-7---------------|
|---9-9/---7---7---6---6---5-5-5-5---7-7-7---------------|
|---7-7/---5---5---4---4---3-3-3-3---5-5-5---------------|
|-0------0-------0---------------------------------------|

Chorus
    Em         F#m        A          C
|-----0----------2----------0----------3-----------------|
|-----0----------2----------2----------5-----------------|
|-----2----------4------2-2-2------5-5-5-----------------|
|-2-2-2------4-4-4------2-2-2------5-5-5-----------------|
|-2-2--------4-4--------0-0--------3-3-------------------|
|-0-0--------2-2-----------------------------------------|
  Woman, keep me warm

    Em         F#m        A         
|-----0----------2----------0--0-0--0--0-----------------|
|-----0----------2----------2--2-2--2--2-----------------|
|-----2----------4------2-2-2--2-2--2--2-----------------|
|-2-2-2------4-4-4------2-2-2--2-2--2--2-----------------|
|-2-2--------4-4--------0-0------------------------------|
|-0-0--------2-2-----------------------------------------|
  Woman, keep me warm

  B C   D                         B C  D
		          ~
|--------------------------------------------------------|
|-4-5--7-7/0----------------------4-5--7-----------------|
|-4-5--7-7/0--------------------0-4-5--7-----------------|
|-4-5--7-7/0--------------------0-4-5--7-----------------|
|-2-3--5-5/0----------5---4-----0-2-3--5-----------------|
|-------------------3---3--------------------------------|
 Caught. .	      and it's. .  Woman, keep me

Solo (2nd guitar playing Guitar Riff 2 is played in back)
	   ~			   +      ~         ~
|--------------------------------------------------------|
|--------------------------------------------------------|
|------7h9h7--9h7----------------------------------------|
|-7h9-------------9h8h7----------7-7------------7/9/7----|
|-----------------------10--7h10-----7/10/7--10----------|
|--------------------------------------------------------|

		                  ~      + +   + (whole notes)
|----------------------------------------7-7-7-7-----------|
|-----8h10h8---8-10-10h12h10-8h10-8------8-8-8-8-8-8h10h8--|
|-7/9--------9----------------------9/0--9-9-9-9-----------|
|----------------------------------------------------------|
|----------------------------------------------------------|
|----------------------------------------------------------|

		    +     ~
|----------10h7h10-12--------10h7-10h7----7---------------|
|-----8h10------------12-12------------10---10h8-10-------|
|-7h9-----------------------------------------------9-7h9-|
|---------------------------------------------------------|
|---------------------------------------------------------|
|---------------------------------------------------------|

        ~			~    +
|--------------------------------------------------------|
|--------------------------------------------------------|
|--------------------------------------------------------|
|--9h7----------7-9h7-9h7--------------------------------|
|------10-9--10-----------10h7/10/7-10-------------------|
|--------------------------------------------------------|

        +        +  +     ~
|---------10h12-15-15-10h12--10h12h10----10----------------------|
|-----8-8-----------------------------12----12-11-10----10---10--|
|-7h9------------------------------------------------12----9-----|
|----------------------------------------------------------------|
|----------------------------------------------------------------|
|----------------------------------------------------------------|

		        +        ~
|--------------------------------------------------------|
|--------------------------------------------------------|
|-12-9-12--9-7----------------------12-14-14h16h14-------|
|--------------8-7------7--------------------------14----|
|------------------10-7---7h10-5/7-----------------------|
|--------------------------------------------------------|

|----------------------------------------------------|
|----------------------------------------------------|
|-14h16h14----14h16h14----14h16h14----14h16h14-------|
|----------14----------14----------14----------14----|
|----------------------------------------------------|
|----------------------------------------------------|

|----------------------------------------------------|
|----------------------------------------------------|
|-14h16h14----14h16h14----14h16h14----14h16h14-------|
|----------14----------14----------14----------14----|
|----------------------------------------------------|
|----------------------------------------------------|

	       ~  +     +
|-------------------------------------------------------------|
|----------------14-12-14-------------------10h12------10h12--|
|-14h16h14----12-14----14-14-12-11-12--9h12-------9h12--------|
|----------14-------------------------------------------------|
|-------------------------------------------------------------|
|-------------------------------------------------------------|

				    +
|-10h12h10-14-15-14h15-17h15h14-17-19--------------------|
|--------------------------------------------------------|
|--------------------------------------------------------|
|--------------------------------------------------------|
|--------------------------------------------------------|
|--------------------------------------------------------|

Chorus
    Em         F#m        A          C       
|-----0----------2----------0----------3-----------------|
|-----0----------2----------2----------5-----------------|
|-----2----------4------2-2-2------5-5-5-----------------|
|-2-2-2------4-4-4------2-2-2------5-5-5-----------------|
|-2-2--------4-4--------0-0--------3-3-------------------|
|-0-0--------2-2-----------------------------------------|
  Woman, keep me warm

    Em         F#m        A          C    D
|-----0----------2----------0----------3-----------------|
|-----0----------2----------2----------5--7--------------|
|-----2----------4------2-2-2------5-5-5--7--------------|
|-2-2-2------4-4-4------2-2-2------5-5-5--7--------------|
|-2-2--------4-4--------0-0--------3-3----5--------------|
|-0-0--------2-2-----------------------------------------|
  Woman, keep me warm

    Em         F#m        A          C
|-----0----------2----------0----------3-----------------|
|-----0----------2----------2----------5-----------------|
|-----2----------4------2-2-2------5-5-5-----------------|
|-2-2-2------4-4-4------2-2-2------5-5-5-----------------|
|-2-2--------4-4--------0-0--------3-3-------------------|
|-0-0--------2-2-----------------------------------------|
  Woman, keep me warm

    Em         F#m          A
|-----0----------2----------0--0-0--0--0-----------------|
|-----0----------2----------2--2-2--2--2-----------------|
|-----2----------4------2-2-2--2-2--2--2-----------------|
|-2-2-2------4-4-4------2-2-2--2-2--2--2-----------------|
|-2-2--------4-4--------0-0------------------------------|
|-0-0--------2-2-----------------------------------------|
  Woman, keep me warm

  B C   D                         B C      D
		          ~
|--------------------------------------------------------|
|-4-5--7-7/0----------------------4-5------7-------------|
|-4-5--7-7/0--------------------0-4-5------7-------------|
|-4-5--7-7/0--------------------0-4-5------7-------------|
|-2-3--5-5/0----------5---4-----0-2-3------5-------------|
|-------------------3---3--------------------------------|
 Caught. .	      and it's. .  Woman,      keep me

     Em         F#m     C          G
|-----0--------------------------------------------------|
|-------0--------3------3---------0----------------------|
|--------------2----------0-----0------------------------|
|---------------------0-------0--------------------------|
|---2--------0------3-------2----------------------------|
|-0--------2---------------------------------------------|
 warm. . .

2nd Guitar for last line
|-----------------5-5h7-5-3------------------------------|
|-------------3-5-----------5----------------------------|
|-----0-2-2/4--------------------------------------------|
|-0h2----------------------------------------------------|
|--------------------------------------------------------|
|--------------------------------------------------------|


I borrowed this From a fansite, If there are any questions, let me know at





Comments


Popular Brother Cane tabs & chords
And Fools Shine On Tabs
Dont Turn Your Back On Me Tabs
Got No Shame Tabs
Hard Act To Follow Tabs
Pressure Tabs
The Last Time Tabs
Wishpool Tabs


Song lyrics



↑ Back to top | Tablatures and chords are parodies/interpretations of the original songs. You may use it for private study, scholarship, research or language learning purposes only
© 2014 AZChords.com Contact us | Privacy policy | DMCA | Add/correct tabs | Request tabs | Top 50 tabs