» » »

Brother Cane, Pressure Tabs (ver.1)

Artists:  A B C D E F G H I J K L M N O P Q R S T U V W X Y Z # 

Pressure Tabs (ver.1)

Brother Cane Tabs
 Rating:
4/5 (4 votes)
Pressure lessons Tabs too difficult? Try these video lessons and learn fast
1
                **Drop Tune Half Step**
Like all the other songs on this album, it's tuned down and has
one monster of a solo. Good luck learning it.

/    =  slide fret fingers to next  note
~    =  vibrato (shake note as if with whammy bar)
+    =  bend for appropiate pitchshifts
h    =  hammer on following note then release back to original

Intro
   G   Bb   C  Bb
|----------------| |---------------------------| This 2nd part is 
|----------------| |---------------------------| played on bass 4 times
|------3---5-5-3-| |---------------------------| then 4 more times
|-/5---3---5-5-3-| |---------------------------| with a guitar joined
|-/5---1---3-3-1-| |-----------------1h0-1-2-3-| in
|-/3-------------| |-3h0-3h0-1-2-3h0-----------|

Verse 1 (The intro is played while another guitar plays this)
  G     Bb    G     C Bb    G     Bb    G     C Bb
|-----------------------------------------------------|
|-------------------5-3-----------------------5-3-----|
|-------3-----------5-3-----------3-----------5-3-----|
|-5-----3-----5-----5-3-----5-----3-----5-----5-3-----|
|-5-----1-----5-------------5-----1-----5-------------|
|-3-----------3-------------3-----------3-------------|
 See I'm just. . .          Not asking for favors. .

  G     Bb    G     C Bb    G     Bb    G     C Bb C
|-----------------------------------------------------|
|-------------------5-3-----------------------5-3-5---|
|-------3-----------5-3-----------3-----------5-3-5---|
|-5-----3-----5-----5-3-----5-----3-----5-----5-3-5---|
|-5-----1-----5-------------5-----1-----5-------------|
|-3-----------3-------------3-----------3-------------|
 I can't hide. .            Still I can't. . .

Pre Chorus
  G   Bb        C         D C Bb G      Bb        C         D C Bb G
|-------------1-------3-------------------------1-------3-----------|
|---------3-------5-----5-------------------3-------5-----5---------|
|-----3-----3---5---5-----7-5-3---------3-----3---5---5-----7-5-3---|
|-5---3---------5---------7-5-3-5---5---3---------5---------7-5-3-5-|
|-5---1-1-------3---------5-3-1-5---5---1-1-------3---------5-3-1-5-|
|-3-----------------------------3---3-----------------------------3-|
 Oh, about. .		            It's not encouraging. . . 

Chorus
     Bb      C     Eb    Bb                  C      Eb     Bb
|--------------------------------------------------------------|
|--------------------------------------------------------------|
|-3--3-3--5--5-5--8-8-3-3--3-3-----3--3-3--5--5-5--8-8-3-3--3-3|
|-3--3-3--5--5-5--8-8-3-3--3-3-----3--3-3--5--5-5--8-8-3-3--3-3|
|-1--1-1--3--3-3--6-6-1-1--1-1-----1--1-1--3--3-3--6-6-1-1--1-1|
|--------------------------------------------------------------|
 Precious. .don't want . .	   Precious. .don't always. . 

2nd guitar in Chorus
|--------------------------------------------------------------|
|-3--3-3---5--5-5---8-8-3--3-3-----3--3-3---5--5-5---8-8-3--3--|
|-3--3-3---5--5-5---8-8-3--3-3-----3--3-3---5--5-5---8-8-3--3--|
|-3--3-3---5--5-5---8-8-3--3-3-----3--3-3---5--5-5---8-8-3--3--|
|--------------------------------------------------------------|
|--------------------------------------------------------------|

Play second part of Intro 4 times
Play the 1st Verse parts for the second Verse
then follow with the Pre Chorus and the Chorus after which this comes
		     ~	        ~		      
|-----------------------------------------------------|
|-8-8-8-8---------------------------------------------|
|-8-8-8-8---------------------------------------------|
|-8-8-8-8---------------------------------------------|
|----------5h3-1h3h1---5h3-1h3h1-1--5h3-1h3h1---5-4-3-|
|--------------------3------------------------3-------|     

Solo
    ~			   +		      ~   +  
|---------------------------------------------------------------------|
|---------------------------------------------------------------------|
|-/12-12-10----10-----------------------------------------------------|
|-----------12----11h10-8-10-8h10h8-8---------------------------------|
|-------------------------------------10-8/10-8/0-----1h3-3h4h3-1h3h1-|
|-------------------------------------------------1/3-----------------|

								 ~
|---------------------------------------------------15h13----13/15-|
|---------------------------------------13-13h15-15-------15-------|
|------5h7-5h7h5--------/12h15-14-14h15----------------------------|
|-/5h8-----------5h8-5---------------------------------------------|
|------------------------------------------------------------------|
|------------------------------------------------------------------|

		   +  +			   ~
|--15h13--------------------------------------/21-20h18--------|
|--------15h13h15-15-15-15h14h13------------------------20h18--|
|--------------------------------15-10/12/10-------------------|
|--------------------------------------------------------------|
|--------------------------------------------------------------|
|--------------------------------------------------------------|

		  ~   +  +     ~
|----------------------------------|
|----------------------------------|
|-19-17h19h17----15--19-17-15------|
|-------------17--------------17---|
|----------------------------------|
|----------------------------------|

Play half of Pre Chorus then go into Chorus and end it with this part
  Eb
                   ~
|---| |--------------|
|---| |--------------|
|-8-| |--------------|
|-8-| |-----------/5-|
|-6-| |-5h3-1h3h1----|
|---| |--------------|

2nd guitar during final Pre Chorus, Chorus, and at end
						~
|------------------| |----------------------------|
|-------3--------5-| |-13-15h14h13----13h15h13----|
|-----3--------3---| |-------------12----------15-|
|-0/5------0/5-----| |----------------------------|
|------------------| |----------------------------|
|------------------| |----------------------------|

    ~  ~        ~    +  +  +
|------------------/16-15-15-13-15-13-15-16-15-------------|
|-----13-16-16---------------------------------15-13-------|
|--15----------15------------------------------------12-15-|
|----------------------------------------------------------|
|----------------------------------------------------------|
|----------------------------------------------------------|

                  ~   ~  ~  ~(continue note)                 ~
|----------------------------------------------------------/15-15/18/0|
|--------------------------16---------------15-13----13---------------|
|-13h15h14h13-------------------------------------15----15------------|
|-------------12-15--15-17--------------------------------------------|
|---------------------------------------------------------------------|
|---------------------------------------------------------------------|

I borrowed this tab from a fansite.
            
Submit corrections

comments powered by Disqus
↑ Back to top | Brother Cane Tabs for Pressure. Lyrics for acoustic guitar and electric guitar. 1 Tablatures and chords are parodies/interpretations of the original songs. You may use it for private study, scholarship, research or language learning purposes only