>
 >
Dont Turn Your Back On Me

Dont Turn Your Back On Me Guitar Tabs

Brother Cane - Dont Turn Your Back On Me chords, tabs, tablatures, lyrics

Guitar lessons | Add/correct | Request | Top 50 tabs Artists:  A B C D E F G H I J K L M N O P Q R S T U V W X Y Z 0-9

Dont Turn Your Back On Me Guitar Tabs – Brother Cane

CD, Sheet music, Poster

Do you like Dont Turn Your Back On Me? Share with your friends now
Tabs
Don't Turn Your Back On Me
**Drop Tune Half Step**
Uses two guitars for most of it but can be changed for just one. The 
solo, again, isn't accurate cause of speed and fx used.

~    =  vibrato (shake note as if with whammy bar)
+    =  bend for appropiate pitchshifts
h    =  hammer on following note then release back to original
/    =  slide fret fingers to next  note

Intro (Play two notes then stop them with your pick hand
before playing next two for the first 3 double note sets)
            A         D G A             A         G A Bb
|--------------------------------------------------------------|
|---------------------7----------------------------------------|
|---------------------7----------------------------------------|
|-2---x-2-2-x-2-2-x---7-5-7/--2---x-2-2-x-2-2-x---5-7-8/-------|
|-2---x-2-2-x-2-2-x---5-5-7/--2---x-2-2-x-2-2-x---5-7-8/-------|
|-0---x-0-0-x-0-0-x-----3-5/--0---x-0-0-x-0-0-x---3-5-6/-------|

Guitar 2 for Intro
			    ~				~
|---------------------------------------------------------|
|---------------------------------------------------------|
|-----------2h3h2-0-2h0-----------------2h3h2-0-2h0-------|
|-----------------------2h0-2-----------------------2h0-2-|
|---------------------------------------------------------|
|---------------------------------------------------------|

        A         D G A              A        G A Bb
|--------------------------------------------------------------|
|-----------------7--------------------------------------------|
|-----------------7--------------------------------------------|
|-2-2-2-x-2-2-x---7-5-7/--2---x-2-2-x-2-2-x---5-7-8/-----------|
|-2-2-2-x-2-2-x---5-5-7/--2---x-2-2-x-2-2-x---5-7-8/-----------|
|-0-0-0-x-0-0-x-----3-5/--0---x-0-0-x-0-0-x---3-5-6/-----------|

Guitar 2 continued
			    ~				~
|---------------------------------------------------------|
|---------------------------------------------------------|
|-----------2h3h2-0-2h0-----------------2h3h2-0-2h0-------|
|-----------------------2h0-2-----------------------2h0-2-|
|---------------------------------------------------------|
|---------------------------------------------------------|

Verse 1
         A        D G A          A        G A Bb
|----------------------------------------------------------|
|-----------------7----------------------------------------|
|-----------------7----------------------------------------|
|-2----2-2--2-2---7-5-7/--2---2-2--2-2----5-7-8/-----------|
|-2----2-2--2-2---5-5-7/--2---2-2--2-2----5-7-8/-----------|
|-0----0-0--0-0-----3-5/--0---0-0--0-0----3-5-6/-----------|
  Sneakin' in. .	  Black out. .     Then I.. .

       A          D G A              A
|--------------------------------------------------------------|
|-----------------7--------------------------------------------|
|-----------------7--------------------------------------------|
|-2-2-2-x-2-2-x---7-5-7/----2-x-2-2-x-2-2-2-2-2/---------------|
|-2-2-2-x-2-2-x---5-5-7/----2-x-2-2-x-2-2-2-2-2/---------------|
|-0-0-0-x-0-0-x-----3-5/----0-x-0-0-x-0-0-0-0-0/---------------|
  hear you. .		  "Don't need. .."

Verse 1 (second part)
   C  G  A    
|--------------------------------------------------------|
|--------------------------------------------------------|
|--------------------------------------------------------|
|-10/-5/-7-----7----7-7----7/----------------------------|
|-10/-5/-7-----7----7-7----7/----------------------------|
|-8-/-3/-5-----5----5-5----5/----------------------------|
         This time I know. ..

   C  G  A
|--------------------------------------------------------|
|--------------------------------------------------------|
|--------------------------------------------------------|
|-10/-5/-7-----7----7-7----7/----------------------------|
|-10/-5/-7-----7----7-7----7/----------------------------|
|-8-/-3/-5-----5----5-5----5/----------------------------|
         Won't take the. .

  B   C  B  A  G  A
|-------------------------------------------------------|
|-------------------------------------------------------|
|-------------------------------------------------------|
|-9/-10/-9/-7/-5/-7-----7----7-7----7/------------------|
|-9/-10/-9/-7/-5/-7-----7----7-7----7/------------------|
|-7/-8-/-7/-5/-3/-5-----5----5-5----5/------------------|
                  Your tears. .

   C  G      Fm              G
|--------------------------------------------------------|
|--------------------------------------------------------|
|--------------------------------------------------------|
|-10/-5/-3-3-3-3-3-3-3-3/-5-5-5-5/-----------------------|
|-10/-5/-3-3-3-3-3-3-3-3/-5-5-5-5/-----------------------|
|-8-/-3/-1-1-1-1-1-1-1-1/-3-3-3-3/-----------------------|
         And I know. .    When. .

Guitar 2 for "And I know. ." (With guitar slide)
|--------------------------------------------------------|
|------------------------------13/0----------------------|
|--------/10--------------/12----------------------------|
|--------------------------------------------------------|
|--------------------------------------------------------|
|--------------------------------------------------------|

Chorus   (Let last note ring)
     B        D     Em      B      D     G A
|-------------------------------------------------------|
|-------------------------------------------------------|
|---4-4-4/-7--7-7---------4-4-4/-7--7-7-----------------|
|---4-4-4/-7--7-7--/2-----4-4-4/-7--7-7--5-7------------|
|---2-2-2/-5--5-5--/2-----2-2-2/-5--5-5--5-7------------|
|------------------/0--------------------3-5------------|
 Don't turn. .		   Cause if you. ..

Guitar 2 for Chorus
		~			~
|---2-----------------------2----------------------------|
|-4---4-------------------4---4--------------------------|
|-------4-2-4-2-----------------4-2-4-2------------------|
|---------------2-----------------------5----------------|
|--------------------------------------------------------|
|--------------------------------------------------------|

      B       D     Em      B       D         G     A  Bb A G
|------------------------------------------------------------|
|------------------------------------------------------------|
|---4-4-4/-7--7-7---------4-4-4/-7--7-7----------------------|
|---4-4-4/-7--7-7--/2-----4-4-4/-7--7-7--5-5-5-5-5-7-7--8-7-5|
|---2-2-2/-5--5-5--/2-----2-2-2/-5--5-5--5-5-5-5-5-7-7--8-7-5|
|------------------/0--------------------3-3-3-3-3-5-5--6-5-3|
  Don't turn. .		   I'll get down. .

Guitar 2 for Chorus (cont.)
		~			     ~	    ~	  ~ ~ ~ ~ ~
|---2-----------------------2--------------------------------------|
|-4---4-------------------4---4--------------3------3-----5-5-6-5-3|
|-------4-2-4-2-----------------4-2-4-2----4------4-----6----------|
|---------------2------------------------5------5-----7------------|
|------------------------------------------------------------------|
|------------------------------------------------------------------|

Play first half of intro again
Play verse line for "Scars of . ."
Play chorus after that.

Solo
				+	         ~
|--------------------------------------------------------|
|---------------------------------------------------10---|
|-------------------------------9/11-11-14h15h14-11------|
|--------------------7h9/10/9-7--------------------------|
|-7-9--7h9/10/9--7h9-------------------------------------|
|--------------------------------------------------------|

					      ~
|--------------------------------------------------------|
|h12-12h13h12-12h13h12-12h13h12-10h12h10-----------------|
|----------------------------------------9h11h9----------|
|--------------------------------------------------------|
|--------------------------------------------------------|
|--------------------------------------------------------|

   +  +  +	     ~			   ~
|-19-19-19------------------------------------------------|
|----------17h19h19h19------------------------------------|
|-----------------------16h17h16-14-14h16h14--11-11h14h11-|
|---------------------------------------------------------|
|---------------------------------------------------------|
|---------------------------------------------------------|

				       ~
|----------------------------------12-15-----------------|
|-------------------------14h17h14-----------------------|
|-------------16h17h16h14--------------------------------|
|-14-14h16h14--------------------------------------------|
|--------------------------------------------------------|
|--------------------------------------------------------|

		      ~			 ~
|-12-12--10-10h12h10--9-9-10-9h10h9h10h------------------|
|---------------------------------------12---------------|
|--------------------------------------------------------|
|--------------------------------------------------------|
|--------------------------------------------------------|
|--------------------------------------------------------|

						       ~
|-10h12h10-----------10h12-12h13h12h10-------------------|
|-----------12h10h12-------------------h12---------------|
|------------------------------------------12h10---------|
|------------------------------------------------11h10-9-|
|--------------------------------------------------------|
|--------------------------------------------------------|

	     ~(hold note)
|-15--15-15/17-------------------------------------------|
|--------------------------------------------------------|
|--------------------------------------------------------|
|--------------------------------------------------------|
|--------------------------------------------------------|
|--------------------------------------------------------|

A second guitar during solo (repeat and place as needed)
      F#m        A B  C        F#m        C  B A
|--------------------------------------------------------|
|--------------------------------------------------------|
|--------------------------------------------------------|
|-4--4-4--4-4--4-7-9-10----4--4-4--4-4--4/10-9-7---------|
|-4--4-4--4-4--4-7-9-10----4--4-4--4-4--4/10-9-7---------|
|-2--2-2--2-2--2-5-7-8-----2--2-2--2-2--2/8--7-5---------|

         D    C#   C   B
|--------------------------------------------------------|
|--------------------------------------------------------|
|-9--9--7-7-6--6--5-5--4---------------------------------|
|-9--9--7-7-6--6--5-5--4---------------------------------|
|-7--7--5-5-4--4--3-3--2---------------------------------|
|--------------------------------------------------------|

Play second part of verse line here
Part for "Your tears. ." 2nd time
   A    G  F#m  Fm G
|--------------------------------------------------------|
|--------------------------------------------------------|
|--------------------------------------------------------|
|-7--7-5-5--4---3--5-------------------------------------|
|-7--7-5-5--4---3--5-------------------------------------|
|-5--5-3-3--2---1--3-------------------------------------|

Second guitar for "Your tears. ."
|---------------14---14----------------------------------|
|----------0/15----15---15/0-----------------------------|
|--------------------------------------------------------|
|--------------------------------------------------------|
|--------------------------------------------------------|
|--------------------------------------------------------|

Play Chorus two more times
Play Intro line for the outro
and end with this
  Em
|----------|
|----------|
|----------|
|-2-2-2----|
|-2-2-2----|
|-0-0-0----|


Borrowed from a fansite





Comments


Popular Brother Cane tabs & chords
And Fools Shine On Tabs
Got No Shame Tabs
Hard Act To Follow Tabs
Pressure Tabs
The Last Time Tabs
Wishpool Tabs
Woman Tabs


Song lyrics



↑ Back to top | Tablatures and chords are parodies/interpretations of the original songs. You may use it for private study, scholarship, research or language learning purposes only
© 2014 AZChords.com Contact us | Privacy policy | DMCA | Add/correct tabs | Request tabs | Top 50 tabs