» » »

Scene Girls Bass tabs (ver.1)

Artists:  A B C D E F G H I J K L M N O P Q R S T U V W X Y Z # 

Scene Girls Bass tabs (ver.1)

Brokencyde
Rating:
0/5 (0 votes)

Hard to play? Try these video lessons and learn fast.
                Scene girls
Tuning:EADG

Basically the entire song....
-
G|---------------------------------|
D|---------------------------------|
A|---------------------------------|
E|-5-5---5-5---8-7-5-5---5-5—--8-7-|

G|---------------------------------|
D|---------------------------------|
A|---------------------------------|
E|-5-5---5-5---8-7-5-5---5-5—--8-7-|

There are some random breaks in it aswell, that are heard easily in the music. such 
after the BOOM!

i also worked out the synth bit at the beginning.

G|----------------------|
D|----------------------|
A|--5-------------------|
E|5---5--6-5--9-8-9--7-6|
            
Hard to play? Try these video lessons and learn fast. | Correct




comments powered by Disqus
↑ Back to top | Tablatures and chords are parodies/interpretations of the original songs. You may use it for private study, scholarship, research or language learning purposes only