» » »

Brokencyde, Kandyland Tabs (ver.1)

Artists:  A B C D E F G H I J K L M N O P Q R S T U V W X Y Z # 

Kandyland Tabs (ver.1)

Brokencyde Tabs
 Rating:
4/5 (4 votes)
Kandyland lessons Tabs too difficult? Try these video lessons and learn fast
1
                
Tuning: E- Standard

//////////////////////////////////////////////
//                                          //
//  RATING THIS TAB TAKES ABOUT 5 SECONDS   //
//  AND HELPS ME TO IMPROVE MY WORK         //
//                                          //
//////////////////////////////////////////////

Main Tune (synth)
e|--2---------2-------------------------------|
B|----2-3-3-3---2-3-3-3-5-0-2-2-2-3---2-0---0-|
G|----------------------------------2-----2---|
D|--------------------------------------------|
A|--------------------------------------------|
E|--------------------------------------------|

Strings(well noticable 0:34-0:42)
e|-2-----------2---------2---------2----------|
B|---3-2-3-2-0---3-2-3-0---3-2-3-0---3-2-3-0--|
G|--------------------------------------------|
D|--------------------------------------------|
A|--------------------------------------------|
E|--------------------------------------------|

Bass (a little quiet)
G|----------------------------------------|
D|----------------------------------------|
A|--5---------4---------5--------4--------|
E|-----------------3------------------3---|

[alt.] Chords

Bm Bm A G

Enjoy =)
Martin Messner
            
Submit corrections

comments powered by Disqus
↑ Back to top | Brokencyde Tabs for Kandyland. Lyrics for acoustic guitar and electric guitar. 1 Tablatures and chords are parodies/interpretations of the original songs. You may use it for private study, scholarship, research or language learning purposes only