>
 >
Im On A Boat

Im On A Boat Bass Tabs

Broadway - Im On A Boat chords, tabs, tablatures, lyrics

Guitar lessons | Add/correct | Request | Top 50 tabs Artists:  A B C D E F G H I J K L M N O P Q R S T U V W X Y Z 0-9

Im On A Boat Bass Tabs – Broadway

CD, Sheet music, Poster

Do you like Im On A Boat? Share with your friends now
Bass TabsBass Tabs v2Tabs
This is my first tab, so be generous. Pretty simple song. I use a 5-string so I wrote it 
that form. Notes for a 4-string are below.

0:16
G|--------------------------------------------------------------------------|
D|--------------------------------------------------------------------------|
A|--------------------------------------------------------------------------|
E|--------------------------------------------------------------------------|
B|--10-----12--13-----6--8------1010101010101010----------------------------|

0:28
G|--------------------------------------------------------------------------|
D|--------------------------------------------------------------------------|
A|--------------------------------------------------------------------------|
E|--------------------------------------------------------------------------|
B|--10(12x)-12(4x)-13(16x)-6(16x)-8(16x)------------------------------------|

0:40
G|--------------------------------------------------------------------------|
D|--------------------------------------------------------------------------|
A|--------------------------------------------------------------------------|
E|--------------------------------------------------------------------------|
B|--1010-1010-10-12-1313-1313-13-13-66-66-6-6-88-88-8-8---------------------|

Repeat the last two sections.

1:15
G|--------------------------------------------------------------------------|
D|--------------------------------------------------------------------------|
A|--------------------------------------------------------------------------|
E|--------------------------------------------------------------------------|
B|--10(28x)--10-101010--10-101010--1010101012121212-13-131313-13-131313-----|

G|--------------------------------------------------------------------------|
D|--------------------------------------------------------------------------|
A|--------------------------------------------------------------------------|
E|--------------------------------------------------------------------------|
B|--1313131313131313-6-666-6-666-66666666-8-888-8-888-88888888--------------|

1:31
G|--------------------------------------------------------------------------|
D|--------------------------------------------------------------------------|
A|--------------------------------------------------------------------------|
E|--------------------------------------------------------------------------|
B|--10-10-10-101010-121212-13-13-13-131313-131313-6-6-6-666-666-8-8-8-888---|

G|--------------------------------------------------------------------------|
D|--------------------------------------------------------------------------|
A|--------------------------------------------------------------------------|
E|--------------------------------------------------------------------------|
B|--888-888-8-8-8888-8-88-88-8-88-88------10~~--10~~--10~~--10~~--3~~-------|

1:58
G|--------------------------------------------------------------------------|
D|--------------------------------------------------------------------------|
A|--------------------------------------------------------------------------|
E|--------------------------------------------------------------------------|
B|--3-33333-333-3-3-3--3-33333-333-3-3-3--33333-333-3-3-3--3-33333-333-3-3-3|

G|--------------------------------------------------------------------------|
D|--------------------------------------------------------------------------|
A|--------------------------------------------------------------------------|
E|--------------------------------------------------------------------------|
B|--3-33333~--3-33333~--3-33333~--3-33333~--6-8-10--------------------------|

2:34
G|--------------------------------------------------------------------------|
D|--------------------------------------------------------------------------|
A|--------------------------------------------------------------------------|
E|--------------------------------------------------------------------------|
B|--10-10-10-10-13-13-13-13-6666666666666666--------------------------------|

2:48
G|--------------------------------------------------------------------------|
D|--------------------------------------------------------------------------|
A|-------------------------------------(2x)---------------------------------|
E|--------------------------------------------------------------------------|
B|--10(16x)-13(16x)-6(16x)-8(16x)-------------------------------------------|

3:11
G|--------------------------------------------------------------------------|
D|--------------------------------------------------------------------------|
A|--------------------------------------------------------------------------|
E|--------------------------------------------------------------------------|
B|--101010-121212-131313-666-888-1010101010101010---------------------------|

Not quite sure about the last part there but I think it's okay.

Notes for the 4-string bass:

Drop D tuning (DADG)
Same as above, except the notes on the B-String in the tab will be played on the 
The numbers will be as follows:

#On B-String | #On D-String
     3       |      0
     6       |      3
     8       |      5
     10      |      7
     12      |      9
     13      |      10

Thanks. Comment for any questions.





Comments


Popular Broadway tabs & chords
Corner Of The Sky Chords
Meg Ryan Would Play You In The Movie Chords
Corner Of The Sky 1 Tabs
On Broadway Tabs
The Prom Queen Has No Friends Tabs
We Are Paramount 1 Tabs
You Bring The Thunder And Ill Bring The Lightning Tabs
Hoplessly Devoted To You Ukulele
Theres A Fine Fine Line Ukulele
Til There Was You Ukulele


Song lyrics



↑ Back to top | Tablatures and chords are parodies/interpretations of the original songs. You may use it for private study, scholarship, research or language learning purposes only
© 2014 AZChords.com Contact us | Privacy policy | DMCA | Add/correct tabs | Request tabs | Top 50 tabs