» » »

Broadway, Awol Chords (ver.1)

Artists:  A B C D E F G H I J K L M N O P Q R S T U V W X Y Z # 

Awol Chords (ver.1)

Broadway Tabs
 Rating:
4/5 (4 votes)
Awol lessons Tabs too difficult? Try these video lessons and learn fast
1
                Standard Tuning
Use Power Chords
Please Rate and/or give feedback




Intro:

Guitar I:
e|-----------------------------------------------------------------|
B|-----------------------------------------------------------------|
G|--5~-------------------------------------------------------------|_
D|--5~-----------5~---------------7~-----------3~------------------| |
A|--3~-----------5~---------------7~-----------3~------------------| |
E|---------------3~---------------5~-----------1~------------------| |
                                                                     |x2
Guitar II                                                            |
e|-----------------------------------------------------------------| |
B|-------------5-8~---8h10p8-6-5-----------------------------------| |
G|--5~---5-5-7--------------------7-9-5~-----7-9--7-5--4-4h5-------|_|
D|------------------------------------------------------------5----|
A|-----------------------------------------------------------------|
E|-----------------------------------------------------------------|

Verse:

C                G
   I wasn't even ready to say goodbye,
A                    F             C
It seemed like that kiss lasted forever
                G
But didn't last long enough,
     A                F
You are the hope that resides in me



Prechorus:

A                     C                F
   I hope this goes well, cause for a long time
     G                A             C
I will be living in hell away from you
     F                    G
And I ask myself 'is that something I can do?'



Chorus:

C                 G
   I wasn't even ready to say goodbye,
A                       F             C
   It seemed like that kiss lasted forever
                 G
But didn't last long enough,
         A            F
We will continue in tune and it will be


G             A
  Full of the warmth we shared so far
F
  And it wasn't easy to walk into the car
G                          A
  Could you please give me something to hold on to?
F
  Something deep that will remind me of you



Bridge:


A                              C
  With your voice on the phone, I don't feel so alone
F                       G
  I feel you next to me, breathing in your sleep
A                              C
  With your voice on the phone, I don't feel so alone
F                       G
  I feel you next to me, breathing in your sleep

F                              G
  With your voice on the phone, I don't feel so alone
A                       C
  I feel you next to me, breathing in your sleep
F                              G
  With your voice on the phone, I don't feel so alone
A                       C                     F       G
  I feel you next to me, breathing in your sleep


Chorus:

B                                   D
  I wasn't even ready to say goodbye,
                           G                A
It seemed like that kiss lasted (lasted, lasted) forever

B                   D
  But didn't last long enough
(with your voice on the phone, I don't feel so alone)

   G                 A
You are the hope that resides in me
(I feel you next to me, breathing in your sleep)

G                     A
  And the next time, I drift off to sleep
(with your voice on the phone, I don't feel so alone)

G                      A
  I hope you will be the next thing I see
(I feel you next to me, breathing in your sleep) 

------
END

Please rate and/or give feedback.
            
Submit corrections

comments powered by Disqus
↑ Back to top | Broadway Chords for Awol. Lyrics for acoustic guitar and electric guitar. 1 Tablatures and chords are parodies/interpretations of the original songs. You may use it for private study, scholarship, research or language learning purposes only