>
 >
Safe

Safe Guitar Tabs

Britt Nicole - Safe chords, tabs, tablatures, lyrics

Guitar lessons | Add/correct | Request | Top 50 tabs Artists:  A B C D E F G H I J K L M N O P Q R S T U V W X Y Z 0-9

Safe Guitar Tabs – Britt Nicole

CD, Sheet music, Poster

Do you like Safe? Share with your friends now
ChordsTabs
As soon as I saw this song on the Air1 vid, I fell in love with it and spent the 
of the afternoon learning it. It's fairly easy, standard tuning. She sings it with the 
on the 2nd fret.

There's two ways to play the intro, I use the first one, the second one is what's in the 
video.

*You can play the Dsus4 whichever way you like, I usually play it either (xx0233) or 
Sounds good either way.
**Note, I may not be 100% correct but it sounds alright to me. :]

e-------------------3---------------------3----|
B----3-0-----3-0----3-----3-0------3-0----3----|
G--------2-------2--0---------2--------2--0----|    1x intro
D-------------------0---------------------0----|    3x verse
A--2-------3--------x------------3--------x----|    (my version)
E-------------------3---0-----------------3----|

e-------------------3---------------------3----|
B----3-------3------3-----3--------3------3----|
G------4-2-----4-2--0-------4-2------4-2--0----|     1x intro
D-------------------0---------------------0----|     3x verse
A--2-------3--------x------------3--------x----|     (video version)
E-------------------3---0-----------------3----|

You keep trying to get inside my head
While I keep trying to lose the words you said
Can't you see I'm hanging by a thread?
      Cadd9                       Dsus4* (xx0233)
To my life, what I know, yeah I'm losing control and


Em7    Cadd9   G           Dsus4
     Oh, no, my walls are gonna break
Em7    Cadd9   G           Dsus4
     So close, it's more than I can take
Em7        Cadd9     G           Dsus4
     I'm so tired of turning and running away
         Em7 Cadd9 G   Dsus4
     When love  just isn't safe

e-------------------3---------------------3----|
B----3-0-----3-0----3-----3-0------3-0----3----|
G--------2-------2--0---------2--------2--0----|
D-------------------0---------------------0----|
A--2-------3--------x------------3--------x----|
E-------------------3---0-----------------3----|

    Em7                Cadd9       G   (palm muting throughout first 3 lines)
I'm strong enough I've always told myself
    Em7                Cadd9       G
I never want or need somebody else
    Em7                Cadd9       G
But I've already fallen from that hill
        Cadd9                         Dsus4
So I'm dropping my guard, here's your chance in my heart and


Em7    Cadd9   G           Dsus4
     Oh, no, my walls are gonna break
Em7    Cadd9   G           Dsus4
     So close, it's more than I can take
Em7        Cadd9     G           Dsus4
     I'm so tired of turning and running away
        Em7 Cadd9 G  Dsus4
     When love  just isn't

Cadd9                         Em7  (strumming is different, listen to video)
Everything you want, but it's everything you need
       Cadd9                          Em7
It's not always happy endings, but it's all the in-betweens
Cadd9                   Em7
It's taken so long, so long to finally see that
Cadd9         Dsus4
Your love is worth the risk

e----0-2-3-----|
B--3-----------|
G--------------|
D--------------|
A--------------|
E--------------|

Em7    Cadd9   G           Dsus4    Em7  Cadd9   G   Dsus4
     Oh, no, my walls are gonna break           Yeah


Em7    Cadd9   G           Dsus4
     Oh, no, my walls are gonna break
Em7    Cadd9   G           Dsus4
     So close, it's more than I can take
Em7        Cadd9     G           Dsus4
     I'm so tired of turning and running away
        Em7 Cadd9 G    Dsus4
     When love  just isn't safe

e-------------------3---------------------3----|
B----3-0-----3-0----3-----3-0------3-0----3----|
G--------2-------2--0---------2--------2--0----|
D-------------------0---------------------0----|
A--2-------3--------x---2--------3--------x----|
E-------------------3---------------------3----|
                       You're not safe       Yeah

e---------------------3----|
B-----3-0------3-0----3----|
G---------2--------2--0----|
D---------------------0----|
A------------3--------x----|
E---0-----------------3----|
  But that's ok





Comments


Popular Britt Nicole tabs & chords
All This Time Chords
Amazing Life Chords
Lost Get Found 2 Chords
Safe Chords
The Lost Get Found Chords
Through The Eyes Of Love Chords
Walk On The Water Chords
Walk On The Water 2 Chords
When She Cries 1 Chords
Set The World On Fire 1 Tabs


Song lyrics



↑ Back to top | Tablatures and chords are parodies/interpretations of the original songs. You may use it for private study, scholarship, research or language learning purposes only
© 2014 AZChords.com Contact us | Privacy policy | DMCA | Add/correct tabs | Request tabs | Top 50 tabs