» » »

Glow Tabs (ver.1)

Artists:  A B C D E F G H I J K L M N O P Q R S T U V W X Y Z # 

Glow Tabs (ver.1)

Britt Nicole
Rating:
0/5 (0 votes)

Hard to play? Try these video lessons and learn fast.
                So there was nothing out there on this song. I don't claim it to be perfect, but it's at 
a starting point for others. Figured out in 10-15min on an acoustic. Take it for what 
is.


Verse 1

-----------------------------------------|
-----------------------------------------|
-----------------------------------------|
-----------------------------------------|
---77--77----77----77--77---77----77--77-|
-55--55---33----33-------------33---33---|
---------------------66--66--------------|

Chords: D F C E // D F C Bb

Last line: D F C Bb Bb/A


Verse 2:
-----------------------------------------|
-----------------------------------------|
-----------------------------------------|
-----------------------------------------|
---77--77----77----77--77---77----77--77-|
-55--55---33----33-------------33---33---|
---------------------66--66--------------|


Chorus: D F C E // D F C Bb

Last line: D F C Bb Bb/A


Bridge: D C Bb F G


Chorus: D F C E // D F C Bb

Last line: D F C Bb Bb/A


Ending: (these are two guitar parts melded into one)
Line 1:
-----------------------------------------|
-----------------------------------------|
-------55-77-----------------------------|
-55-77-----------------------------------|
-------------8-8-8-8-8-8-8-8-------------|
-------------6-6-6-6-5-5-5-5-------------|

Line 2:
-10-10-13-13-12-12----10-----------------|
-------------------13--------------------|
-----------------------------------------|
-----------------------------------------|
-------------------------8-8-8-8-8-8-8-8-|
-------------------------6-6-6-6-5-5-5-5-|
            
Hard to play? Try these video lessons and learn fast. | Correct




comments powered by Disqus
↑ Back to top | Tablatures and chords are parodies/interpretations of the original songs. You may use it for private study, scholarship, research or language learning purposes only