» » »

Don Know When But A Day Is Gonna Come Tabs (ver.1)

Artists:  A B C D E F G H I J K L M N O P Q R S T U V W X Y Z # 

Don Know When But A Day Is Gonna Come Tabs (ver.1)

Bright Eyes
Rating:
0/5 (0 votes)

Hard to play? Try these video lessons and learn fast.
                Bright Eyes
Don't know when but a day is gonna come

verse

-0-----0-|-----------0---|
-3-----3-|-----1-----0---|
-2-----2-|-----0-----0---|
-0-3-2-0-|-3-2-2-3-2-0-3-|
---------|-----3-----2-3-|
---------|-----------3-1-|


bridge thing

Dm    C# A C  A                 Dm
----------------------------------|
-----3-2---5--1---1-----------1---|
-0-2-----2------2---0-2---0-2---2-|
----------------------------------|
----------------------------------|
----------------------------------|

Dm
            
Hard to play? Try these video lessons and learn fast. | Correct




comments powered by Disqus
↑ Back to top | Tablatures and chords are parodies/interpretations of the original songs. You may use it for private study, scholarship, research or language learning purposes only