» » »

Bright Eyes, Contrast And Compare Tabs (ver.1)

Artists:  A B C D E F G H I J K L M N O P Q R S T U V W X Y Z # 

Contrast And Compare Tabs (ver.1)

Bright Eyes Tabs
Rating:
5/5 (6 votes)
Hard to play? Try these video lessons and learn fast.
                Song Title: Contrast and Compare

Standard Tuning

------3---|
------5---|
------5---|
------5---|
----2-3---|
3-5-------|

-------------------------|
-------------------------|
--0-------------0--------|
----4-5--0---------------|  x7
-----------0h2h3---2p0---|
3-------3--------------3-|

Contrast and  compare between the busy ones and the ones who don't care
3-------------1--------------------------------------------------------|
5-------------3--------------------------------------------------------|
5-------------2-------------------1------------------------------------|
5----------------------------------------------------------------------|
3---------------------------------2------------------------------------|
-----------------------------------------------------------------------|

until there is no one that you really know
---------------1------3---------------3-----|
---------------1------3---------------5-----|
---------------2----------------------5-----|
---------------3----------------------5-----|
---------------3------2---------------3-----|
---------------1------3---------------------|

Repeat same pattern for "so i drift through these days of appointments and promises 
guess there’s nothing to do. oh well"

------------------------|
----------8---------9---|
5---------8---------10--|
6---------8---------10--|  x3
6---------6---------8---|
4-----------------------|

(Sorry, there was a lot of stuff happening here so it was really hard to figure this 
out)
------       -----3-|
------       -----5-|
3---4-       3----5-|
5---5-  x 2  5----5-|
5---5-       5----3-|
3---3-       3------|

group of kids, line of cars, more will show up after the bars close
3----------------------1-------------------------------------------|
5----------------------3-------------------------------------------|
5----------------------2---------------1---------------------------|
5------------------------------------------------------------------|
3--------------------------------------2---------------------------|
-------------------------------------------------------------------|

there’s this boredom that drowns everything.
-------------1------3----------------------3--|
-------------1------3----------------------5--|
-------------2-----------------------------5--|
-------------3-----------------------------5--|
-------------3------2----------------------3--|
-------------1------3-------------------------|

Repeat pattern until end of song

Hope you enjoy this tab and that its accurate.  Sorry for not putting the strumming 
but i'm sure that you can figure it out
            

comments powered by Disqus
↑ Back to top | Bright Eyes Tabs for Contrast And Compare. Lyrics for acoustic guitar and electric guitar. Tablatures and chords are parodies/interpretations of the original songs. You may use it for private study, scholarship, research or language learning purposes only