» » »

Brighten, We Chose The King Tabs (ver.1)

Artists:  A B C D E F G H I J K L M N O P Q R S T U V W X Y Z # 

We Chose The King Tabs (ver.1)

Brighten Tabs
Rating:
0/5 (0 votes)
We Chose The King lessons Tabs too difficult? Try these video lessons and learn fast
                
Standard tuning, capo of third fret


Intro:
E:--3--3-----3--3----|
B:--3--3-----3--3----|
G:--0--0-----0--0----|        X 2
D:--0--0-----2--2----|
A:--0--2-----0--2----|
E:--2--3-----0--0----|


Verse One:
E:--3--3-----3--3-----3--3-----3--3----|
B:--3--3-----3--3-----3--3-----3--3----|
G:--0--0-----0--0-----0--0-----0--0----|
D:--0--0-----2--2-----0--0-----0--2----|
A:--0--2-----0--2-----0--2-----2--2----|
E:--2--3-----0--0-----2--3-----3--0----|


Pre-Chorus:
E:--0--0--0--|
B:--1--0--3--|
G:--2--0--0--|
D:--2--2--5--|
A:--0--2--6--|
E:--0--0--6--|


Chorus:
E:--3--3--3--2--3--3--3--2--|
B:--3--3--3--3--3--3--3--3--|
G:--0--0--0--2--0--0--0--2--|
D:--2--0--2--0--2--0--2--0--|
A:--3--2--2--0--3--2--2--0--|
E:--0--3--0--2--0--3--0--2--|


Intro X 1

Verse X 1


Pre-chorus X 1
+ Interlude:
E:--0--0--0--0-0--|
B:--1--1--0--3-1--|
G:--0--2--0--0-0--|
D:--2--2--2--5-2--|
A:--3--0--2--6-3--|
E:--0--0--0--6-3--|
  Strum each once


Chorus X 2


Bridge:3
E:--3~~-3~-3~-3-3--|            E:--3--3--3--3--|
B:--3~~-3~-3~-3-0--|            B:--3--3--3--3--|
G:--0~~-0~-0~-0-0--|    then    G:--0--0--0--0--|	X 4
D:--2~~-2~-2~-0-0--|            D:--2--0--2--0--|
A:--3~~-2~-3~-2-0--|            A:--3--2--2--0--|
E:--0~~-0~-0~-3-2--|            E:--0--3--0--2--|

E:--xxxx-xxxx-|
B:--xxxx-xxxx-|
G:--xxxx-xxxx-|
D:--xxxx-xxxx-|
A:--xxxx-xxxx-|
E:--xxxx-xxxx-|
"We're not gonna take it, mm, not gonna take it"

Chorus X 2
            
Submit corrections

comments powered by Disqus
↑ Back to top | Brighten Tabs for We Chose The King. Lyrics for acoustic guitar and electric guitar. Tablatures and chords are parodies/interpretations of the original songs. You may use it for private study, scholarship, research or language learning purposes only