» » »

The Better Way Tabs (ver.1)

Artists:  A B C D E F G H I J K L M N O P Q R S T U V W X Y Z # 

The Better Way Tabs (ver.1)

Brighten
Rating:
0/5 (0 votes)

Hard to play? Try these video lessons and learn fast.
                                          THE BETTER WAY by BRIGHTEN


Okay guys, this is my first tab so please bare with me here. Read, Rate, Play. Thanks.

Tuning: DADGBE

Intro G1 (Clean)
0:00-0:26
E|-----------------------1-------|
B|-4-4-4-1-4-4-4-1-4-4-4---1-----|
G|---------------------------3-1-|
D|-------------------------------|
A|-------------------------------|
D|-------------------------------|

Intro G2 (Distortion)
0:11-0:26
E|---------------------------------------------------------|
B|---------------------------------------------------------|
G|-----------------6-----------6-----------------------6~--|
D|-3-----1----XXX--6-----6-----6-----6-----3-----1-----6~--|
A|-3-----1----XXX--4-x8--6-----4-x8--6-----3-----1-----4~--|
D|-3-x4--1-x4-XXX--------6-x8--------6-x8--3-x8--1-x8------|

Verse G1 (Clean)
0:27-0:52
E|-----4---4---4---4--|
B|-------4-------4----|
G|---6----------------|
D|-6---------6--------|
A|--------------------|
D|--------------------|

Pre-Chorus G1 (Clean)
0:53-1:01
E|--------------------------------------------------------------|
B|-----4-----4-----4-----4-----4-----4-----1-----1-----1-----1--|
G|---3-----3-----3-----3-----3-----3-----3-----3-----3-----3----|
D|-3-----3-----1-----1-----3-----3-----3-----3-----3-----3------|
A|--------------------------------------------------------------|
D|--------------------------------------------------------------|

Chorus G1 + 2 (Distortion)
         1:02-1:16                    1:16-1:31
          Part 1                       Part 2 
E|------------------------|---------------------------------|
B|------------------------|---------------------------------|
G|-------------6----------|-----------------66-666----------|
D|-3-----1-----6----6-----|-33-333--11-111--66-666--66-666--|
A|-3-----1-----4x8--6-----|-33-333--11-111--44-444--66-666--|
D|-3-x8--1-x8-------6-x8--|-33-333--11-111----------66-666--|

Post-Chorus G1 (Clean)
1:32-1:38
E|-----------------------1--------|
B|-4-4-4-1-4-4-4-1-4-4-4---1------|
G|---------------------------3-1--|
D|--------------------------------|
A|--------------------------------|
D|--------------------------------|

Post-Chorus G2 (Distortion)
1:32-1:38
E|-------------------------|
B|-------------------------|
G|-6-----------6-----------|
D|-6-----6-----6-----6-----|
A|-4-x8--6-----4-x8--6-----|
D|-------6-x8--------6-x8--|

Verse 2 G1 (Distortion)
1:50-1:54                 1:54-2:03
E|--/16-15-14-14/15-11--|-----4---4---4---4--|
B|----------------------|-------4-------4----|
G|----------------------|---6----------------|
D|----------------------|-6---------6--------|
A|----------------------|--------------------|
D|----------------------|--------------------|

Verse 2 G2 (Distortion)
1:50-1:54       2:04-2:12
E|-------------|------------------------------------------|
B|-------------|------------------------------------------|
G|-6-----------|------------------------------------------|
D|-6-----6-----|-33-333--11-111--33-333--00-000--11111111-|
A|-4-x8--6-----|-33-333--11-111--33-333--00-000--11111111-|
D|-------6-x5--|-33-333--11-111--33-333--00-000--11111111-|
        ^^^                                      ........
Let last note ring.

Chorus G1 + 2 (Distortion)
         2:13-2:27                    2:27-2:41
          Part 1                       Part 2 
E|------------------------|---------------------------------|
B|------------------------|---------------------------------|
G|-------------6----------|-----------------66-666----------|
D|-3-----1-----6----6-----|-33-333--11-111--66-666--66-666--|
A|-3-----1-----4x8--6-----|-33-333--11-111--44-444--66-666--|
D|-3-x8--1-x8-------6-x8--|-33-333--11-111----------66-666--|

Bridge G1 (Distortion)
2:42-2:50
E|-------------------------------------|
B|-------------------------------------|
G|-------------------------------------|
D|-3361-1111111-3361-1111111-333555666-|
A|-3361-1111111-3361-1111111-333555666-|
D|-3361-1111111-3361-1111111-333555666-|
        .......      .......
2:51-3:02
E|------------------------------------------------------------|
B|------------------------------------------------------------|
G|-------------------------------------8885~-----------8885~--|
D|-3361-1111111-3361-1111111-333555666-8885~-333555666-8885~--|
A|-3361-1111111-3361-1111111-333555666-6663~-333555666-6663~--|
D|-3361-1111111-3361-1111111-333555666-------333555666--------|
        .......      .......
Verse 3 G1 + 2 (Distortion)
3:03-3:06     3:07-3:10
E|-----------|-----------|
B|-----------|-----------|
G|-----------|-6---------|
D|-3~---1~---|-6----6----|
A|-3~---1~---|-4-x8-6----|
D|-3~---1~---|------6-x8-|

3:11-3:17                 3:18-3:32
E|-----------------------|---------------------------------|
B|-----------------------|---------------------------------|
G|-----------6-----------|-----------------66-666----------|
D|-3----1----6----6------|-33-333--11-111--66-666--66-666--|
A|-3----1----4-x8-6------|-33-333--11-111--44-444--66-666--|
D|-3-x8-1-x8------6-x8---|-33-333--11-111----------66-666--|

Outro G1
3:33-3:44
E|-----------------------------------------------|
B|-----------------------------------------------|
G|-------------6-6--6----------------------8885--|
D|-3-3--1-1----6-6--6-66666666--333555666--8885--|
A|-3-3--1-1----4-4--4-66666666--333555666--6663--|
D|-3-3--1-1-----------66666666--333555666--------|
            
Hard to play? Try these video lessons and learn fast. | Correct




comments powered by Disqus
↑ Back to top | Tablatures and chords are parodies/interpretations of the original songs. You may use it for private study, scholarship, research or language learning purposes only