» » »

Love Me Honestly Tabs (ver.1)

Artists:  A B C D E F G H I J K L M N O P Q R S T U V W X Y Z # 

Love Me Honestly Tabs (ver.1)

Brighten
Rating:
0/5 (0 votes)

Hard to play? Try these video lessons and learn fast.
                I saw the other tab for this and it's not exactly how Justin plays it, only the intro 
good. This is how he plays it exactly.

Tuned Half-Step Down. Capo on second fret.


Intro/Chorus:

eb|--0--|--0--|--0-------|
Bb|--3--|--0--|--0-------|
Gb|--2--|--2--|--1-------|
Db|--4--|--4--|--2-------|
Ab|--5--|--4--|--2-----0-|
Eb|--0--|--0--|--0--0-2--| x2

Verse:

eb|--0--|--0--|--0--|--0--|
Bb|--7--|--2--|--3--|--6--|
Gb|--6--|--1--|--2--|--7--|
Db|--8--|--3--|--4--|--0--|
Ab|--9--|--4--|--5--|--0--|
Eb|--0--|--0--|--0--|--0--| x2

Pre-Chorus:

eb|--0--|--0--|--0--|
Bb|--7--|--3--|--4--|
Gb|--6--|--2--|--3--|
Db|--8--|--4--|--5--|
Ab|--9--|--5--|--6--|
Eb|--0--|--0--|--0--|

eb|--0--|--0--|--0--|--0--|
Bb|--7--|--4--|--3--|--4--|
Gb|--6--|--3--|--2--|--3--|
Db|--8--|--5--|--4--|--5--|
Ab|--9--|--6--|--5--|--6--|
Eb|--0--|--0--|--0--|--0--|

eb|--0--|--0--|--0--|
Bb|--7--|--5--|--3--|
Gb|--6--|--4--|--2--|
Db|--8--|--6--|--4--|
Ab|--9--|--7--|--5--|
Eb|--0--|--0--|--0--|

Chorus x4

Verse x2

(At the end of the second verse, add this in:)

eb|-------|
Bb|-------|
Gb|-------|
Db|-------|
Ab|-----0-|
Eb|--0-2--|

Bridge: ^ (Part above is already part of the Bridge)

eb|--0---------0--------0---------0--1-2-4--|
Bb|--6---------0--------6---------0--2-3-5--|
Gb|--7---------2--------7---------2--1-2-4--|
Db|--7---------2--------7---------2---------|
Ab|--5--5-4/2--1-----0--5--5-4/2--1---------|
Eb|--0---------0--0-2---0---------0---------|

Chorus x5

End on E:

eb|--0--|
Bb|--0--|
Gb|--2~-|
Db|--2~-|
Ab|--1~-|
Eb|--0--|


Enjoy! :D
            
Hard to play? Try these video lessons and learn fast. | Correct




comments powered by Disqus
↑ Back to top | Tablatures and chords are parodies/interpretations of the original songs. You may use it for private study, scholarship, research or language learning purposes only