» » »

Brighten, Carolina Bass tabs (ver.1)

Artists:  A B C D E F G H I J K L M N O P Q R S T U V W X Y Z # 

Carolina Bass tabs (ver.1)

Brighten Tabs
 Rating:
4/5 (4 votes)
Carolina lessons Tabs too difficult? Try these video lessons and learn fast
                tuning: standard.
took me a while to get this.
feel free to rate/comment.

0:01-0:05
G|----------------------------------------------------|
D|----------------------------------------------------|
A|---4-4--3-3--1-1--3-3--4-4--3-3---------------------|
E|----------------------------------------------------|

0:07-0:12 (11 is 2 1's)
G|----------------------------------------------------|
D|----------------------------------------------------|
A|---44-4--33-3--11-1--33-3-------------66666666------|
E|---------------------------11-1-11-1----------------|

0:13-0:21
G|----------------------------------------------------|
D|----------------------------------------------------|
A|---4-4--3-3--1-1--3-3--4-4--3-3--1-1--3-3-----------|
E|----------------------------------------------------|

0:22-0:36
G|-----------------------------------------------------------------------------------|
D|-----------------------------------------------------------------------------------|
A|-4444--3333--1111--3333----------66666666--4-44--3-33--1-11-3-33--55555555-3333-4\-|
E|------------------------11111111---------------------------------------------------|

0:37-0:50
G|----------------------------------------------------------------------------|
D|----------------------------------------------------------------------------|
A|---4-4--3-3--1-1--3-3-------------66666666--4-4--3-3--1-1--3-3--55555555--4-|
E|-----------------------11-1-11-1--------------------------------------------|

0:52:-1:04
G|---------------------------------------------------------------------------|
D|---------------------------------------------------------------------------|
A|---44-4--33-3--11-1--33-3--44-4--33-3--11-1--33-3--44-4--33-3--11-1--33-3--|
E|---------------------------------------------------------------------------|

1:05-1:18
G|---------------------------------------------------------------------------|
D|---------------------------------------------------------------------------|
A|---44-4--33-3--11-1--33-3-------------66666666--4--3--1--3--55555555--3333-|
E|---------------------------11-1-11-1---------------------------------------|

1:19-1:34
G|-------------------------------------------------------------------------------|
D|-------------------------------------------------------------------------------|
A|---4-4--3-3--1-1--3-3-------------66666666--4-4--3-3--1-1--3-3--55555555--4444-|
E|-----------------------11-1-11-1-----------------------------------------------|

1:35-1:50
G|-----------------------------------------------------------------------------------------------|
D|-----------------------------------------------------------------------------------------------|
A|-44-4--33-3--11-1--33-3--44-4--33-3--11-1--33-3--44-4--33-3--11-1--33-3--44-4--33-3--11-1-33-3-|
E|-----------------------------------------------------------------------------------------------|

1:51-2:05
G|----------------------------------------------------------------------------------|
D|----------------------------------------------------------------------------------|
A|---4-4--3-3--1-1--3-3-------------66666666--4-4--3-3--1-1--3-3--55555555--4-4-4-4-|
E|-----------------------11-1-11-1--------------------------------------------------|

2:06-2:21
G|---------------------------------------------------------------------------------------------|
D|---------------------------------------------------------------------------------------------|
A|-44-4--33-3--11-1--33-3-------------66666666--44-4--33-3--11-1--33-3-------------66666666----|
E|---------------------------11-1-11-1----------------------------------11-1--11-1-------------|

2:22
G|-----|
D|-----|
A|---4-|
E|-----|
            
Submit corrections

comments powered by Disqus
↑ Back to top | Brighten Bass for Carolina. Lyrics for acoustic guitar and electric guitar. Tablatures and chords are parodies/interpretations of the original songs. You may use it for private study, scholarship, research or language learning purposes only