» » »

Briggs, Molly Tabs (ver.1)

Artists:  A B C D E F G H I J K L M N O P Q R S T U V W X Y Z # 

Molly Tabs (ver.1)

Briggs Tabs
 Rating:
4/5 (4 votes)
Molly lessons Tabs too difficult? Try these video lessons and learn fast
                THE BRIGGS
MOLLY
COME ALL YOU MADMEN

STANDARD TUNING


CHORDS:

      A        D        E
   |-----   |--2--   |-----|
   |-----   |--3--   |-----|
   |--2--   |--2--   |-----|
   |--2--   |--0--   |--2--|
   |--0--   |-----   |--2--|
   |-----   |-----   |--0--|


STRUMMING:

v v v ^ v


INTRO:

A


A
Take a bow
        D                    A
Collect all your pumps and praise
                      D          A
Like a bomb, you turn the night into day
                      D                 A
I want to say all the things my mind forgets
                                        D                 A
But the words don’t escape my mouth occupied by this cigarette

A
Yesterday
             D                  A
I thought it couldn’t get much worse
                     D      A
Until I woke up this morning
                            D         A
I hoped to sleep until this chaos was gone
                           D            A
So don’t wait for me, it’s time to move on


A               E
Carry on, carry on
   A              D
To where? I don’t know
      A           E                 A     E
Carry on, my dear Molly, we have to let go
      A         E
Carry on, carry on
   A              D
To where? I don’t know
      A           E            A
Carry on, my dear Molly, carry on


A

INTERLUDE:
|----------------------------------|
|----------------------------------|
|----------------------------------|
|--2--2--9-9-9--7-6-4--4--4/6-6----|  x2
|--0--0--7-7-7--5-4-2--2--2/4-4----|
|----------------------------------|


A
The moon hides behind the clouds
        D                  A
The foothills don’t make a sound
                                  D      A
The clocks tired arms continue to spin round
                            D         A
I hold my breath under this ocean of silence
                           D        A
Until I put an end to this mind of violence


A               E
Carry on, carry on
   A              D
To where? I don’t know
      A           E                 A     E
Carry on, my dear Molly, we have to let go
      A         E
Carry on, carry on
   A              D
To where? I don’t know
      A           E            A
Carry on, my dear Molly, carry on


A               E
Carry on, carry on
   A              D
To where? I don’t know
      A           E                 A     E
Carry on, my dear Molly, we have to let go
      A         E
Carry on, carry on
   A              D
To where? I don’t know
      A           E            A
Carry on, my dear Molly, carry on

OUTRO: (interlude plays over the outro as well)

A

|----------------------------------------------|
|-----5-7-5-3-2-0--2-----5-7-5-3-2-0-(0)-------|
|-----------------------------------------2----| x2
|-2-------------------2------------------------|
|-0-------------------0------------------------|    NOTE: only play (0) the
|----------------------------------------------|          the second time
            
Submit corrections

comments powered by Disqus
↑ Back to top | Briggs Tabs for Molly. Lyrics for acoustic guitar and electric guitar. Tablatures and chords are parodies/interpretations of the original songs. You may use it for private study, scholarship, research or language learning purposes only