» » »

Bored Teenager Tabs (ver.1)

Artists:  A B C D E F G H I J K L M N O P Q R S T U V W X Y Z # 

Bored Teenager Tabs (ver.1)

Briggs
Rating:
5/5 (3 votes)

Hard to play? Try these video lessons and learn fast.
                Band: The Briggs

~= ring out chord
*= mute chord

Intro:                                               x1
e------------------------------------------------------|
B------------------------------------------------------|
G--5~-----------5~-----------5~------------------------|
D--5~--3-2h3-5--5~--3-2h3-0--5~--3-2h3-5--3~--3-3-3-5--|
A--3~-----------3~-----------3~-----------3~-----------|
E-----------------------------------------1~-----------|

Verse 1:
C~
This is a story of a bored teenager,
F~                      C~
Stuck inside a category line
        A~              G~
That he had to abide by all the time
C*
Then one day this bored teenager
F*                                C*
Got tired of always playing their game
A*               G*
They all want to look the same

Pre-Chorus:
A                     F
But you want to stand out from the crowd
G             C
All you do is try, try, try,
A                    F            g
But you're not gonna get out this time...

Fill:
e-----------|
B-----------|
G--5-4h5-7--|
D-----------|
A-----------|
E-----------|

Chorus:
    C    C  C
Get back in line!
F                  A                G
You're never gonna change the whole world
    C    C      C
Get back in the line!
F                        A                       G
Must have been a fool to think that things could change
    C    C  C
Get back in line!
F                     A          G
Rock the ship and get thrown overboard
    C    C      C
Get back in the line!
F                        A               G
Must have been a fool to think you could change the world...

Intro x1

Verse 2:
C~
This is a story of a bored teenager
F~                                 C~
Cast outside by different frame of mind
    A~                    G~
The shallow assemblage he left behind
C*
Sooner or later his boredom turned to anger
F*                                  C*
Kicked in the face by his so-called friends,
  A*                 G* 
A brutal cylcle that never ends

Pre-Chorus x1

Fill

Chorus x1

Solo 1:
e-----------------------------------------------------------8h10p8--|
B------6-5h6-8------6-5h6-3------6-5h6-8--6-6-6-6-6-6-8-8-8---------|
G--5~-----------5~-----------5~-------------------------------------|
D-------------------------------------------------------------------|
A-------------------------------------------------------------------|
E-------------------------------------------------------------------|

Bridge:
C       F     A  G
Stay in line, Whoah x6

e----------------------------------|
B----------------------------------|
G--17--17--17--17--16--16--19--19--| After second time play this till 
D---x---x---x---x---x---x---x---x--| Solo 2
A--15--15--15--15--14--14--17--17--|
E----------------------------------|
 
Solo 2:
e-----------------------|---------------------------------------------|
B--------------5-5-5-5--|--8-6p5------8-6p5-3----------5h6-8p6p5------|
G--4-4-4-4-4-4----------|--------5-5-----------5-5-5h7-----------7-5--|
D-----------------------|---------------------------------------------|
A-----------------------|---------------------------------------------|
E-----------------------|---------------------------------------------|

e----------------|---------------------5-------------------------|
B----------------|----6p5----8-6p5-5h6---8-----------------------|
G----------------|--7-----5--------------------------------------|
D--3-5--3p2-3-5--|--------------------------------2h3p2-3p2-3-0--|
A----------------|--------------------------3-3h5----------------|
E----------------|-----------------------------------------------|

e----------------------5-7-8----|
B----------------5h6-8----------|
G----------2h4-5----------------|
D--------2----------------------|
A--3h5-5------------------------|
E-------------------------------|

Pre-Chorus

Fill

Chorus

Outro:                                                                   x2
e--------------------------------------------------------------------------|
B---------66-55-888---------66-55-333---------66-55-888-66-55-3355-66-55---|
G--555555------------555555------------555555----------------------------7-|
D--------------------------------------------------------------------------|
A--------------------------------------------------------------------------|
E--------------------------------------------------------------------------|

F                  G          C
Rock the ship, get thrown overboard
            
Hard to play? Try these video lessons and learn fast. | Correct




comments powered by Disqus
↑ Back to top | Tablatures and chords are parodies/interpretations of the original songs. You may use it for private study, scholarship, research or language learning purposes only