» » »

Jump, Jive And Wail Tabs (ver.1)

Artists:  A B C D E F G H I J K L M N O P Q R S T U V W X Y Z # 

Jump, Jive And Wail Tabs (ver.1)

Brian Setzer Orchestra
Rating:
0/5 (0 votes)

Hard to play? Try these video lessons and learn fast.
                Main riff:
E|------------------|
B|------------------|
G|------------------|
D|--8---8-5-8-5-----|
A|--------------8---|
E|----6-------------|

End of first chorus:
E|-----------------18--|
B|-----------11~-------|
G|-----------------15--|
D|------8~-------------|
A|---------------------|
E|--6~-----------------|

Horn Solo:                    -   This section is Octave Bends    -
E|------------------------------------------------------------------|
B|/11-11-9-----/11--11-9------14--14--11--11--9---9---6--6--14--14--|
G|---------10------------10---16^-16^-13^-13^-11^-11^-8^-8^-16^-16^-|
D|------------------------------------------------------------------|
A|------------------------------------------------------------------|
E|------------------------------------------------------------------|
  v  Cont'd below  v
E|---------------------------------------------------------------------|
B|-15-15-15-13-------15^16^15-13------------------13----13----13-------|
G|-------------15----------------15----15^slowly^----15----15----15----|
D|------------------------------------------------------------------13-|
A|---------------------------------------------------------------------|
E|---------------------------------------------------------------------|

End of verse:
E|--------------|
B|--------------|
G|--------------|
D|--------------|
A|--------------|
E|--6--7--8--7--|

Key Change:
E|---------------------------------------|
B|---------------------------------------|
G|----------------------6-6--------------|
D|------------8p6------------8-8-8---/9--|
A|-----6h7h8-------8-8-------------------|
E|--6------------------------------------|

Bridge intro:
E|------------------------------------------|
B|------------------------------------------|
G|------------------------------------------|
D|---------7----9-----9-9-9-9-9-9-----------|
A|--7h8h9-----------------------------------|
E|------------------------------------------|

After bridge/bass part:
E|---------|-----------------|------------------|
B|---------|-----------------|------------------|
G|---------|*---------------*|--------------7---|
D|-9-6-9-6-|*-9-6-9-6---7-9-*|-9-6-9-6----7-----|
A|---------|----------9------|----------9-------|
E|---------|-----------------|------------------|

Outro:
E|-------------------|
B|--------------15---|
G|*-----------------*| Repeat
D|*-/8-----/12------*| Fade Out
A|-------------------|
E|-----6-------------|
            
Hard to play? Try these video lessons and learn fast. | Correct




comments powered by Disqus
↑ Back to top | Tablatures and chords are parodies/interpretations of the original songs. You may use it for private study, scholarship, research or language learning purposes only