» » »

6 Hours 8 Days 12 Hours Tabs (ver.1)

Artists:  A B C D E F G H I J K L M N O P Q R S T U V W X Y Z # 

6 Hours 8 Days 12 Hours Tabs (ver.1)

Brian Mcknight
Rating:
0/5 (0 votes)

Hard to play? Try these video lessons and learn fast.
                
This is one of my favorite songs by Brian McKnight. This guitar part is pretty hard to
memorize. But once you're able to memorize it and sing it, then you have just mastered
this song. Anyway, I hope you enjoy it. I think this tab is at least 95% correct. The 
other tab says the tuning is 2 Steps Down. That may be right, but i played this with standard
tuning. It sounds good to me. But just experiment with those two different kinds of 
tuning to play this song. And see which tuning sounds better with this tab. Anyway, enjoy!

Legend:
x slap guitar or guitar strings (like on drum beat)
~ held note
h hammer-on
p pull-off

Intro:
|--------------------|--------------------|---------------------|
|-------3-x-3~---3---|-------3-x-3~---3---|-------4-x-4~---4----|
|-----3---x-3~--3-3--|-----3---x-3~--3-3--|-----5---x-5~--5--5--|
|---3-----x-3~-3---3-|---3-----x-3~-3---3-|---3-----x-3~-3----3-|
|-1-------x-1~1------|---------x-3~-------|---------x-3~--------|
|--------------------|-3-------x-3~3------|-3-------x-3~3-------|
 Ooooooooooooooooooooh~~                   Oooooooooooooooooh~~

|--------------------|
|-------1-x-1~---1---|
|-----2---x-2~--2-2--|
|---3-----x-3~-3---3-|
|---------x-3~-------|
|-1-------x-1~1------|

Verse 1:
|--------------------|--------------------|---------------------|
|-------3-x-3~---3---|-------3-x-3~---3---|-------4-x-4~---4----|
|-----3---x-3~--3-3--|-----3---x-3~--3-3--|-----5---x-5~--5--5--|
|---3-----x-3~-3---3-|---3-----x-3~-3---3-|---3-----x-3~-3----3-|
|-1-------x-1~1------|---------x-3~-------|---------x-3~--------|
|--------------------|-3-------x-3~3------|-3-------x-3~3-------|
"Do you ever think about me? Do you ever cry your self to sleep?

|--------------------|
|-------1-x-1~---1---|
|-----2---x-2~--2-2--|
|---3-----x-3~-3---3-|
|---------x-3~-------|
|-1-------x-1~1------|
In the middle of the night when you awkake, are you calling out for me?

|----------5h7p5----------|--------------|--------------------|-----------|
|----5-x-5~-----5h7p5-5---|----------8---|--------3h4~4~--4---|-----------|
|---7--x-7~------------7--|---7-x---7-7--|--------3h5~5~-5-5--|-2~2~x-3~5~|
|--5---x-5~-------------5-|--7--x--8---8-|---3---3------3---3-|-3~3~x-3~5~|
|-5----x-5~---------------|-----x-6------|--3-3---------------|-3~3~x-3~5~|
|-------------------------|-6---x--------|-3----3-------------|-1~1~x-3~5~|
Do you ever reminisce? I can't believe I'm acting like this. I know it's crazy, how I
can still feel your kiss."

Chorus:
|----------------|-6~6----6---|----------------|---------|-------|
|-3~3-3~3----3---|-4~4---4-4--|-3~3-3~3----3---|-5~5-x-5~|-3h4~4-|
|-3~3-3~3---3-3--|-3~3--3---3-|-3~3-3~3---3-3--|-4~4-x-4~|-3h5~5-|
|-3~3-3~3--3---3-|-3~3-3------|-3~3-3~3--3---3-|-5~5-x-5~|-3---3-|
|-1~1-3~3--------|------------|-1~1-3~3--------|-3~3-x-3~|-3---3-|
|-----3~3-3------|------------|-----3~3-3------|---------|-------|
"It's been 6 months, 8 days, 12 hours since you went away (Oh yeah)
I miss you so much, and I don't know what to say.

|--------------------|----------5h7p5----------|--------------|
|-------1-x-1~---1---|----5-x-5~-----5h7p5-5---|----------8---|
|-----2---x-2~--2-2--|---7--x-7~------------7--|---7-x---7-7--|
|---3-----x-3~-3---3-|--5---x-5~-------------5-|--7--x--8---8-|
|---------x-3~-------|-5----x-5~---------------|-----x-6------|
|-1-------x-1~1------|-------------------------|-6---x--------|
I should be over you, I should know better, but it's just not the case.

|--------------------|
|--------3h4~4~--4---|
|--------3h5~5~-5-5--|
|---3---3------3---3-|
|--3-3---------------|
|-3----3-------------|
It's been 6 months, 8 days, 12 hours since you went away."

Verse 2: (Played like Verse 1)
"Do you ever ask about me?
Do your friends still tell you what to do?
Everytime the phone rings, do you wish it me calling you?
Do you still feel the same?
Or has time put out the flame, I miss you.
Is everything okay?"

(Chorus)

Bridge:
|----------------------------------|x2
|-7~7----7---5~x-5~-8~8-7----7---3~|
|-6~6---6-6--7~x-7~-7~7-6---6-6--3~|
|-7~7--7---7-5~x-5~-8~8-7--7---7-3~|
|-5~5-5------5~x-5~-6~6-7-7------3~|
|----------------------------------|
"It's hard enough just passing the time, when I can't seem to get you off of my mind.
And where is the good in goodbye?
|-----------------|
|-4~4-x-4~5~5-x-5~|
|-5~5-x-5~6~6-x-6~|
|-6~6-x-6~7~7-x-7~|
|-----x-------x---|
|-6~6-x-6~7~7-x-7~|
Tell me why~ Tell me why~"

(Chorus)

(Guitar Verse) Play Verse 1 without any lyrics.

And that's it. Please rate and leave a comment. Thanks! rock on!! B)
            
Hard to play? Try these video lessons and learn fast. | Correct




comments powered by Disqus
↑ Back to top | Tablatures and chords are parodies/interpretations of the original songs. You may use it for private study, scholarship, research or language learning purposes only