» » »

Brett Younker, As You Are Chords (ver.1)

Artists:  A B C D E F G H I J K L M N O P Q R S T U V W X Y Z # 

As You Are Chords (ver.1)

Brett Younker Tabs
Rating:
0/5 (0 votes)
Hard to play? Try these video lessons and learn fast.
                As You Are- Brett Younker

Intro-     C♯m7      E      C♯m7     E

    e--------------------------------|
    B-------12---------------10-9----|
    G--9------------(9)--------------|
    D----9------(9)-----(9)----------|
    A--------------------------------|
    E--------------------------------|

Verse-

C♯m7      E
   You are mercy
C♯m7      E
   You are peace
C♯m7              E
   Your heart is so pure
C♯m7             E
   You’ve forgiven me


Chorus-

    Asus2        A/G♯       F ♯5
I’m  seeing  You   as   You   are
       Asus2        A/G♯     F ♯5
Great majestic,      holy      Lord
  Asus2    A/G♯     F ♯5
I  see Your glorious face
     Asus2    A/G♯      F ♯5
As my heart    knows Your grace

Verse-

C♯m7       E
   Giver of life alone
C♯m7          E
   Redeemer of my soul
C♯m7        E
   Faithful is the lord
C♯m7           E
   Your heart I long to know


Chorus


Bridge-

    e-----------2------------2------------2----2--------------|
    B--------5------------5------------5----------5-----------|
    G-----4------------4------------4----------------4--------|
    D--2------------------------------------------------------|
    A--------------0------------2-----------------------------|
    E-(0)-----------------------------------------------------|  x2


E      Asus2        Bsus4
  Cover me with Your love
E      Asus2           Bsus4
  I am marked with Your mercy
E              Asus2  Bsus4
  My heart can’t get  enough
                           E      Asus2    Bsus4
(x3 first time)  You set me free                  x2

Chorus  - end on Bsus4

Outro-
 C♯m7        E
  (seeing you lord)
 C♯m7           E
   (your changing me)
            

comments powered by Disqus
↑ Back to top | Brett Younker Chords for As You Are. Lyrics for acoustic guitar and electric guitar. Tablatures and chords are parodies/interpretations of the original songs. You may use it for private study, scholarship, research or language learning purposes only