» » »

Brendan Benson, Spit It Out Chords (ver.1)

Artists:  A B C D E F G H I J K L M N O P Q R S T U V W X Y Z # 

Spit It Out Chords (ver.1)

Brendan Benson Tabs
Rating:
5/5 (4 votes)
Spit It Out lessons Tabs too difficult? Try these video lessons and learn fast
                Intro =
e|--------------------------------------------------------------------|
B|--------------------------------------------------------------------|
G|--------------------------------------------------------------------|
D|---------------------9-11-11-9-11-11--------------------------------|   x3
A|-9-11-11-9--11-9-11--0-0--0--0-0--0---------------------------------|
E|-0-0--0--0--0--0-0--------------------------------------------------|

e|---------------------------------------------------------------------------|
B|---------------------------------------------------------------------------|
G|---------------------------------------------------------------------------|
D|---4--4--------------------------------------------------------------------|
A|---2--2---------4----4-----------------------------------------------------|
E|----------------2----2-----------------------------------------------------|


E                     A
The yellow sun in the sky whenever you walk
E              A
A little white lie written in chalk
E                    A
The red spot in your eye whenever you talk
B             F#m
Spit it out now
E                     A
And at the end of the day when you kick back
E                  A
You give all new meaning to the same cr*p
E               A
So many tiles I can't keep track
B           F#m    Abm           Eb
Start all over     when it's all over

CHORUS :


A              E
What's on your mind?
F#m         C#m
Spit it out now
A                E
It looks like the time
F#m            C#m
Is running out now
A              REPEAT INTRO
So spit it out now

E                      A
There's a window of time, you're in the nick of it
E                   A
You look at the view and you're sick of it
E                  A
You get the urge to throw a brick in it
B        F#m
Go ahead now
E                     A
So look out cause there's no way to stop it
E                    A
Every bubble you blow, I'm gonna pop it
E                 A
So look out below, I'm gonna drop it
B          F#m    Abm       Eb
Listen up now     listen up now

CHORUS :
A              E
What's on your mind?
F#m          C#m
Spit it out now
A                E
It looks like the time
F#m            C#m
Is running out now
A                 REPEAT INTRO
It's running out now.
            
Submit corrections

comments powered by Disqus
↑ Back to top | Brendan Benson Chords for Spit It Out. Lyrics for acoustic guitar and electric guitar. Tablatures and chords are parodies/interpretations of the original songs. You may use it for private study, scholarship, research or language learning purposes only