» » »

Breed 77, La Ultima Hora The Final Hour Tabs (ver.1)

Artists:  A B C D E F G H I J K L M N O P Q R S T U V W X Y Z # 

La Ultima Hora The Final Hour Tabs (ver.1)

Breed 77 Tabs
Rating:
0/5 (0 votes)
La Ultima Hora The Final Hour lessons Tabs too difficult? Try these video lessons and learn fast
                I DON’T THINK THIS IS 100% CORRECT BUT IT’S PRETTY CLOSE

Standard Tuning

Intro Part 1 - Clean
e:---------------------------------------------------------------------------------
b:---------------------------------------------------------------------------------
g:--5-5-5-5-5/6\5-5-5-5-5-5/6\5-5-3-2-3-5---------------------------------
d:---------------------------------------------------------------------------------
a:--3-3-3-3-3------3-3-3-3-3-----3-1-0-1-3----------------------------------
e:---------------------------------------------------------------------------------     x2

Intro Part 2 – Distortion

e:---------------------------------------------------------------------------------
b:---------------------------------------------------------------------------------
g:--5-5-5-5-6-3---5-5-5-5-10-9--5-5-5-5-6-5-3-3-3-3-6-6-6-------------
d:--5-5-5-5-6-3---5-5-5-5-10-9--5-5-5-5-6-5-3-3-3-3-6-6-6-------------
a:--3-3-3-3-4-1---3-3-3-3-8--7---3-3-3-3-4-3-1-1-1-1-4-4-4-------------
e:---------------------------------------------------------------------------------      x2

Verse – ( You need an acoustic to get the right sound)

e:----------------------------------------------------------------------------------------------------
b:----------------------------------------------------------------------------------------------------
g:--55556666555566665/66668888666688886/9999999999999999-55556666555566
d:--55555555555555555 66666666666666666-1010101010101010-55555555555555
a:--33333333333333333/44444444444444444/8888888888888888-33333333333333
e:-------------------------------------------------------------------------------------------------- x2

Pre-chorus - Distortion

e:---------------------------------------------------------------------------------
b:----------6^-------------------10^--------------------------------------------
g:--6-5-6----5-4-5--10-9-10-------9--9-(slide)-----------------------------
d:--------------------------------------------------------------------------------
a:--------------------------------------------------------------------------------
e:--------------------------------------------------------------------------------

Chorus - Distortion
e:---------------------------------------------------------------------------------------
b:---------------------------------------------------------------------------------------
g:--5-5-5-5-5-6-5-5-5-5-5-5-6-5-13-13-13-13-13-13-13-10-10-10-10-------
d:--5-5-5-5-5-6-5-5-5-5-5-5-6-5-13-13-13-13-13-13-13-10-10-10-10---6--8
a:--3-3-3-3-3-4-3-3-3-3-3-3-4-3-11-11-11-11-11-11-11- 8--8--8—8-8---6-8
e:------------------------------------------------------------------------------------4-6
e:---------------------------------------------------------------------------------
b:---------------------------------------------------------------------------------
g:--------5-5-5-5-5-6-5-5-5-5-5-5-6-5---------------------------------------
d:--6-8--5-5-5-5-5-6-5-5-5-5-5-5-6-5-6-6-6-6-6-6-6-3-3-3-3-3-3-3----
a:--6-8--3-3-3-3-3-4-3-3-3-3-3-3-4-3-6-6-6-6-6-6-6-3-3-3-3-3-3-3----
e:--4-6-------------------------------------4-4-4-4-4-4-4-1-1-1-1-1-1-1----  x2

Sorry I couldn’t work out the solo but if anyone can please tab it.
That’s it. Enjoy.
            
Submit corrections

comments powered by Disqus
↑ Back to top | Breed 77 Tabs for La Ultima Hora The Final Hour. Lyrics for acoustic guitar and electric guitar. Tablatures and chords are parodies/interpretations of the original songs. You may use it for private study, scholarship, research or language learning purposes only