» » »

Know What You Know Tabs (ver.1)

Artists:  A B C D E F G H I J K L M N O P Q R S T U V W X Y Z # 

Know What You Know Tabs (ver.1)

Breed 77
Rating:
0/5 (0 votes)

Hard to play? Try these video lessons and learn fast.
                Key:    x - Mute String
        b - Bend
       Pm - Palm Muted
       () - Harmonic
        h - Hammer-On
Tuning: Drop d



Intro        00:07
|-----------------------------|
|-----------------------------|
|-----------------------------|
|-\6-0-6-0-5--6-0-6-0-9-------|
|-\6-0-6-0-5--6-0-6-0-9-------|
|-\6-0-6-0-5--6-0-6-0-9-------|

Verse     00:27
|-------------------------------|
|-------------------------------|
|-------------------------------|
|5-5-5-5-5-5-5-5-5-5------------|
|5-5-5-5-5-5-5-5-5-5------------|
|5-5-5-5-5-5-5-5-5-5------------|
Pm.. . . . . . . . .

Chorus     01:01
|----------------------------------------|
|----------------------------------------|
|----------------------------------------|
|5-5-5-5-5-5-5-----8-8-8-8-8-------------|
|3-3-3-3-3-3-3-----8-8-8-8-8-------------|
|3-3-3-3-3-3-3-----8-8-8-8-8-------------|

Bridge     01:24
|----------------------------------------|
|----------------------------------------|
|----------------------------------------|
|-5-5-5-5-5-5---6-6-6-6---5-5-5-5-5-5-5-5|
|-5-5-5-5-5-5---4-4-4-4---5-5-5-5-5-5-5-5|
|-5-5-5-5-5-5---4-4-4-4---5-5-5-5-5-5-5-5|
Pm                        . . . . . . . .

Interlude     02:44
|----------------------------------|
|----------------------------------|
|----------------------------------|
|5-5-5-5-5-5-5--6-5-5-5--6-5-5-6--9|
|5-5-5-5-5-5-5--6-5-5-5--6-5-5-6--9|
|5-5-5-5-5-5-5--6-5-5-5--6-5-5-6--9|
Pm.. . . . . .
            
Hard to play? Try these video lessons and learn fast. | Correct




comments powered by Disqus
↑ Back to top | Tablatures and chords are parodies/interpretations of the original songs. You may use it for private study, scholarship, research or language learning purposes only