» » »

Breed 77, Karma Tabs (ver.1)

Artists:  A B C D E F G H I J K L M N O P Q R S T U V W X Y Z # 

Karma Tabs (ver.1)

Breed 77 Tabs
 Rating:
4/5 (4 votes)
Karma lessons Tabs too difficult? Try these video lessons and learn fast
                Key:    x - Mute String
        b - Bend
       Pm - Palm Muted
       () - Harmonic
        h - Hammer-On
Tuning: Drop d



Intro                      00:26
|------------------|---------------------|
|------------------|---------------------|
|------------------|---------------------|
|9-9-9-9--9-9-9-9--|-9-0--9-0--9-0--9-0--|
|9-9-9-9--9-9-9-9--|-9-0--9-0--9-0--9-0--|
|9-9-9-9--9-9-9-9--|---------------------|
PM.. . .  . . . .

Verse    00:42
|---------------------------------------|
|---------------------------------------|
|---------------------------------------|
|-9-9-9-9--9-9-9-9---5-5-5-5--5-5-5-5---|
|-9-9-9-9--9-9-9-9---5-5-5-5--5-5-5-5---|
|-9-9-9-9--9-9-9-9---5-5-5-5--5-5-5-5---|
Pm. . . .  . . . .   . . . .  . . . .

Chorus   01:30
|------------------------------------|
|------------------------------------|
|-11-11-11-11-11--7-7-7-7-7-7--------|
|-9--9--9--9--9---5-5-5-5-5-5--------|
|-9--9--9--9--9---5-5-5-5-5-5--------|
|-9--9--9--9--9---5-5-5-5-5-5--------|

Solo    03:22
|-------------------------------------------|
|-------------------------------------------|
|---11b---11b----11b---------11b--12--/-----|x4
|-9----9------9------11-12------------------|
|-------------------------------------------|
|-------------------------------------------|

Fill-in    04:31
|--------------------------------|
|--------------------------------|
|--------------------------------|
|--------------------------------|
|---9---9---9---9---9---9--------|
|-9---9---9---9---9---9---9------|
            
Submit corrections

comments powered by Disqus
↑ Back to top | Breed 77 Tabs for Karma. Lyrics for acoustic guitar and electric guitar. Tablatures and chords are parodies/interpretations of the original songs. You may use it for private study, scholarship, research or language learning purposes only