>
 >
Individuo

Individuo Guitar Tabs

Breed 77 - Individuo chords, tabs, tablatures, lyrics

Guitar lessons | Add/correct | Request | Top 50 tabs Artists:  A B C D E F G H I J K L M N O P Q R S T U V W X Y Z 0-9

Individuo Guitar Tabs – Breed 77

CD, Sheet music, Poster

Do you like Individuo? Share with your friends now
Bass TabsTabs
Band- Breed 77
Song-Individuo
Album-cultura (2004)

Tuning: Drop d
low(DADGBE)high

Key:
Palm mute= .
Hammer on= h
Pull off=p
vibrato=~


guitar 1
intro                        >(drums start )
E|--------------------------------------------------------------|
B|--------------------------------------------------------------|
G|-7-7--7-7-7--7-7-7--7-7-7--7-7-7--7-7-7--7-7-7--7-7-7-7-------|
D|-x-x--x-x-x--x-x-x--x-x-x--x-x-x--x-x-x--x-x-x--x-x-x-x-------|      x1
A|-5-5--5-5-5--5-5-5--5-5-5--5-5-5--5-5-5--5-5-5--5-5-5-5-------|
D|--------------------------------------------------------------|


 (band kicks in)
E|-----------------------------------------------------------|
B|-----------------------------------------------------------|
G|-7-7--7-7-7--7-7-7--7-7-7--7-7-7--7-7-7--7-----------------|
D|-x-x--x-x-x--x-x-x--x-x-x--x-x-x--x-x-x--x-8-8-5-5-8-8-5-5-|
A|-5-5--5-5-5--5-5-5--5-5-5--5-5-5--5-5-5--5-6-6-3-3-6-6-3-3-|
D|-----------------------------------------------------------|


E|---------------------------------------------------------------------------|
B|---------------------------------------------------------------------------|
G|---------------------------------------------------------------------------|
D|---------------------------------------------------------5-5--5-5-5--5-5-5-|
A|-0-0--0-0-0--0-0-0--0-0-0--0-1-1--1-1-1--1-1-1--1-1-1--1-3-3--3-3-3--3-3-3-|
D|-0-0--0-0-0--0-0-0--0-0-0--0-1-1--1-1-1--1-1-1--1-1-1--1-------------------|


E|----------------------------------|
B|----------------------------------|
G|----------7-7-7-7-7-7-7-7-7-7-7-7-|
D|-5-5-5--5-x-x-x-x-x-x-x-x-x-x-x-x-|  x1
A|-3-3-3--3-5-5-5-5-5-5-5-5-5-5-5-5-|
D|----------------------------------|


Verse      (Guitar 1 guitar 2 quiet)
E|-------------------------------------------|
B|-------------------------------------------|
G|-------------------------------------------|
D|-------------------------------------------|   X2
A|---9---9-9----9-9--9-9h10h12---9---9-9---9-|
D|-0---0-----0------0----------0---0-----0---|
pm .   .     .      .          .   .     .


Verse  (both guitars)
E|---------------|
B|---------------|
G|---------------|
D|-5-5-5-5-3-3-3-| x2
A|-3-3-3-3-3-3-3-|
D|---------3-3-3-|

Pre-chorus
E|-------------------------------------------------------|
B|-------------------------------------------------------|
G|-------------------------------------------------------|
D|-------------------------------------------------------|  x2
A|---9---9-9----9-9--9-9h10h12---9---9-9---9-9-9h10h12---|
D|-0---0-----0------0----------0---0-----0----0----------|
pm .   .     .      .          .   .     .    .

Chorus   (both guitars)
E|---------------------------------------------------------------------------|
B|---------------------------------------------------------------------------|
G|---------------------------------------------------------5-5--5-5-5--5-5-5-|
D|---------------------------------------------------------5-5--5-5-5--5-5-5-|
A|-0-0--0-0-0--0-0-0--0-0-0--0-1-1--1-1-1--1-1-1--1-1-1--1-3-3--3-3-3--3-3-3-|
D|-0-0--0-0-0--0-0-0--0-0-0--0-1-1--1-1-1--1-1-1--1-1-1--1-------------------|

E|------------------------------|
B|------------------------------|
G|-5-5-5-5-5--------------------|
D|-5-5-5-5-5--------------------|   x2
A|-3-3-3-3-3--------------------|
D|-----------4--4--4--3--3-1----|


Break       (guitar 1)
E|--------------------------|
B|--------------------------|
G|-7-7--7-7-7--7-7-7--77-77-|
D|-x-x--x-x-x--x-x-x--xx-xx-|  x1
A|-5-5--5-5-5--5-5-5--55-55-|
D|--------------------------|


Verse      (Guitar 1 guiatr 2 quiet)
E|-------------------------------------------|
B|-------------------------------------------|
G|-------------------------------------------|
D|-------------------------------------------|  x2
A|---9---9-9----9-9--9-9h10h12---9---9-9---9-|
D|-0---0-----0------0----------0---0-----0---|
pm .   .     .      .          .   .     .


Verse  (both guitars)
E|---------------|
B|---------------|
G|---------------|
D|-5-5-5-5-3-3-3-|  x2
A|-3-3-3-3-3-3-3-|
D|---------3-3-3-|

Pre-chorus
E|-------------------------------------------------------|
B|-------------------------------------------------------|
G|-------------------------------------------------------|
D|-------------------------------------------------------|  x2
A|---9---9-9----9-9--9-9h10h12---9---9-9---9-9-9h10h12---|
D|-0---0-----0------0----------0---0-----0----0----------|
pm .   .     .      .          .   .     .    .

Chorus   (both guitars)
E|---------------------------------------------------------------------------|
B|---------------------------------------------------------------------------|
G|---------------------------------------------------------5-5--5-5-5--5-5-5-|
D|---------------------------------------------------------5-5--5-5-5--5-5-5-|
A|-0-0--0-0-0--0-0-0--0-0-0--0-1-1--1-1-1--1-1-1--1-1-1--1-3-3--3-3-3--3-3-3-|
D|-0-0--0-0-0--0-0-0--0-0-0--0-1-1--1-1-1--1-1-1--1-1-1--1-------------------|

E|-----------------------------|
B|-----------------------------|
G|-5-5-5-5-5-------------------|
D|-5-5-5-5-5-------------------|   x2
A|-3-3-3-3-3-------------------|
D|-----------4--4--4--3--3-1---|

Bridge               (guitar 1)
E|------------------------------------------------------------------|
B|------------------------------------------------------------------|
G|------------------------------------------------------------------|
D|------------------------------------------------------------------|
A|-12-10-9-9-9-9-9h10-12-13---12-12-12-13-12-6-6-6-6-10-9-5-5-5-5-5-|
D|------------------------------------------------------------------|
         ~~~~~~~         ~~~~~               ~~~~~~~      ~~~~~~~~~


E|-------------------------------------------------------------------|
B|-------------------------------------------------------------------|
G|-------------------------------------------------------------------|
D|-77777777777777778888888888888888555555555555555557777777777777777-
A|-55555555555555556666666666666666333333333333333335555555555555555-
D|-------------------------------------------------------------------
pm ............................................................
                                                         ^Gradual pm release

E|---------------------------------------------------------------------------|
B|---------------------------------------------------------------------------|
G|---------------------------------------------------------------------------|
D|7-7-x-7--7-x-7-7-7--7-7-7--7-8-8--8-8-8--8-8-8--8-8-8--8-5-5--5-5-5--5-5-5-|
A|5-5-x-5--5-x-5-5-5--5-5-5--5-6-6--6-6-6--6-6-6--6-6-6--6-3-3--3-3-3--3-3-3-|
D|---------------------------------------------------------------------------|

E|----------------------------|
B|----------------------------|
G|----------------------------|
D|-5-5-5--5-5555555555555555--|
A|-3-3-3--3-3333333333333333--|
D|----------------------------|

Break       (guitar 1)
E|--------------------------|
B|--------------------------|
G|-7-7--7-7-7--7-7-7--77-77-|
D|-x-x--x-x-x--x-x-x--xx-xx-|   x1
A|-5-5--5-5-5--5-5-5--55-55-|
D|--------------------------|


Chorus   (both guitars)
E|---------------------------------------------------------------------------|
B|---------------------------------------------------------------------------|
G|---------------------------------------------------------5-5--5-5-5--5-5-5-|
D|---------------------------------------------------------5-5--5-5-5--5-5-5-|
A|-0-0--0-0-0--0-0-0--0-0-0--0-1-1--1-1-1--1-1-1--1-1-1--1-3-3--3-3-3--3-3-3-|
D|-0-0--0-0-0--0-0-0--0-0-0--0-1-1--1-1-1--1-1-1--1-1-1--1-------------------|

E|-----------------------------|
B|-----------------------------|
G|-5-5-5-5-5-------------------|
D|-5-5-5-5-5-------------------|   x2
A|-3-3-3-3-3-------------------|
D|-----------4--4--4--3--3-1---|


Outro     (Both guitars)
E|-------------------------------------------------|
B|-------------------------------------------------|
G|-------------------------------------------------|
D|-------------------------------------------------| x4
A|-0-0-1-0-0-1-0-0-1-0-0-1-0-0-1-0-----------------|
D|-0-0-1-0-0-1-0-0-1-0-0-1-0-0-1-0-4--4--4--3--3-1-|
pm . .   . .   . .   . .   . .   .


E|----------------------------------------|
B|----------------------------------------|
G|----------------------------------------|
D|-----------------------------------0----|   x1
A|-----------------------------------0----|
D|-4--4--4--3--3-1---4--4--4--3--3-1-0----|





Comments


Popular Breed 77 tabs & chords
A Safe Place Tabs
Eyes That See (Intro) Tabs
La Ultima Hora Tabs
La Ultima Hora (Solo) Tabs
La Ultima Hora The Final Hour Tabs
The River Tabs
The River 1 Tabs
Zombie Tabs
Alive Ukulele
Numb Ukulele


Song lyrics



↑ Back to top | Tablatures and chords are parodies/interpretations of the original songs. You may use it for private study, scholarship, research or language learning purposes only
© 2014 AZChords.com Contact us | Privacy policy | DMCA | Add/correct tabs | Request tabs | Top 50 tabs